Sum 41 - Makes No Difference Chords & Tabs

 

Makes No Difference Chords & Tabs

Sum 41 Chords & Tabs

Version: 8 Type: Tab 0 ratings
1 star 2 stars 3 stars 4 stars 5 stars
comments

Makes No Difference Tab

#----------------------------------PLEASE NOTE--------------------------------#
#This file is the author's own work and represents their interpretation of the#
#song. You may only use this file for private study, scholarship, or research.#
#-----------------------------------------------------------------------------#
#-- File created with Instab - http://www.pconline.com/~smcarey/instab.html --#
#-----------------------------------------------------------------------------#

Author/Artist: Sum 41
Title: Makes No Difference
Album: Half Hour of Power
Transcribed by: Mike Roney
Email: rones_jabrones@hotmail.com

mute = ^

--------------------------------|--------------------------------|------------
--------------------------------|--------------------------------|------------
--------------------------------|--------------------------------|------------
-5-xx-6h8--8-8-8--2-xx-3h5-6-6-5|-5-xx-6h8--8-8-8--2-xx-3h5-6-6-5|------------
-6-xx-6----6-6-6--3-xx-3---6-6-6|-6-xx-6----6-6-6--3-xx-3---6-6-6|------------
--------------------------------|--------------------------------|------------


---------------------------------------|--------------------------------------
---------------------------------------|--------------------------------------
-8-8-8-8-8-8-8-8-8-8-8-8-8-8-8-13-13-12|-8-8-8-8-8-8-8-8-8-8-8-8-8-8-8--------
-x-x-x-x-x-x-x-x-x-x-x-x-x-x-x-x--x--x-|-x-x-x-x-x-x-x-x-x-x-x-x-x-x-x--------
-6-6-6-6-6-6-6-6-6-6-6-6-6-6-6-11-11-10|-6-6-6-6-6-6-6-6-6-6-6-6-6-6-6--------
---------------------------------------|--------------------------------------


---------|----------------------------------------------------------------|---
---------|----------------------------------------------------------------|---
-10-10-12|-^-^-^-^-^-^-^-^-^-^-^-^-^-^-^-^-^-^-^-^-^-^-^-^----------------|---
--x--x-x-|-8-8-8-8-8-8-8-8-8-8-8-8-8-8-8-8-5-5-5-5-5-5-5-5-^-^-^-^-^-^-^-^|---
--8--8-10|-6-6-6-6-6-6-6-6-5-5-5-5-5-5-5-5-3-3-3-3-3-3-3-3-6-6-6-6-6-6-6-6|---
---------|-------------------------------------------------4-4-4-4-4-4-4-4|---


----------------------------------------------------------------|-------------
----------------------------------------------------------------|-------------
-^-^-^-^-^-^-^-^-^-^-^-^-^-^-^-^-^-^-^-^-^-^-^-^----------------|-------------
-8-8-8-8-8-8-8-8-8-8-8-8-8-8-8-8-5-5-5-5-5-5-5-5-^-^-^-^-^-^-^-^|-------------
-6-6-6-6-6-6-6-6-5-5-5-5-5-5-5-5-3-3-3-3-3-3-3-3-6-6-6-6-6-6-6-6|-------------
-------------------------------------------------4-4-4-4-4-4-4-4|-------------


----------------------------------------------------------------|-------------
----------------------------------------------------------------|-------------
----------------------------------------------------------------|-------------
-8-8-8-8-8-8-8-8-8-8-8-8-8-8-8-8-5-5-5-5-5-5-5-5----------------|-------------
-6-6-6-6-6-6-6-6-5-5-5-5-5-5-5-5-3-3-3-3-3-3-3-3-6-6-6-6-6-6-6-6|-------------
-------------------------------------------------4-4-4-4-4-4-4-4|-------------


----------------------------------------------------------------|-------------
----------------------------------------------------------------|-------------
----------------------------------------------------------------|-------------
-8-8-8-8-8-8-8-8-8-8-8-8-8-8-8-8-5-5-5-5-5-5-5-5----------------|-------------
-6-6-6-6-6-6-6-6-5-5-5-5-5-5-5-5-3-3-3-3-3-3-3-3-6-6-6-6-6-6-6-6|-------------
-------------------------------------------------4-4-4-4-4-4-4-4|-------------


------------------------------------------------------------------------------
------------------------------------------------------------------------------
------------------------------------------------------------------------------
-8-8-8-8-8-8-8-8-8-8-8-8-8-8-8-8-10-10-10-10-10-10-10-10-10-10-10-10----------
-6-6-6-6-6-6-6-6-6-6-6-6-6-6-6-6-8--8--8--8--8--8--8--8--8--8--8--8-----------
------------------------------------------------------------------------------


------------------------------------------------------------------------------
------------------------------------------------------------------------------
------------------------------------------------------------------------------
-10-10-10-10-13-13-13-13-13-13-13-13-13-13-13-13-13-13-13-13-16-16-16-16------
-8--8--8--8--11-11-11-11-11-11-11-11-11-11-11-11-11-11-11-11-14-14-14-14------
------------------------------------------------------------------------------


------------------------------------|-----------------------------------------
------------------------------------|-----------------------------------------
------------------------------------|-----------------------------------------
-16-16-16-16-16-16-16-16-16-16-16-16|-8-8-8-8-8-8-8-8-8-8-8-8-8-8-8-8---------
-14-14-14-14-14-14-14-14-14-14-14-14|-6-6-6-6-6-6-6-6-6-6-6-6-6-6-6-6---------
------------------------------------|-----------------------------------------


------------------------------------------------------------------------------
------------------------------------------------------------------------------
------------------------------------------------------------------------------
-10-10-10-10-10-10-10-10-10-10-10-10-10-10-10-10-13-13-13-13-13-13-13-13------
-8--8--8--8--8--8--8--8--8--8--8--8--8--8--8--8--11-11-11-11-11-11-11-11------
------------------------------------------------------------------------------


------------------------------------------------------------------------|-----
------------------------------------------------------------------------|-----
------------------------------------------------------------------------|-----
-13-13-13-13-13-13-13-13-16-16-16-16-16-16-16-16-16-16-16-16-16-16-16-16|-----
-11-11-11-11-11-11-11-11-14-14-14-14-14-14-14-14-14-14-14-14-14-14-14-14|-----
------------------------------------------------------------------------|-----


-------------------------------------------|----------------------------------
-------------------------------------------|----------------------------------
-12-12-12-12-13-12-10--12-12-12-12-13-12-10|12-12-12-12-13-12-10--------------
-x--x--x--x--x--x--x---x--x--x--x--x--x--x-|x--x--x--x--x--x--x---------------
-10-10-10-10-11-10-9---10-10-10-10-11-10-9-|10-10-10-10-11-10-9---------------
-------------------------------------------|----------------------------------


---------------------|--------------------------------------------------------
---------------------|--------------------------------------------------------
-12-12-12-12-13-12-10|^-^-^-^-^-^-^-^-^-^-^-^-^-^-^-^-^-^-^-^-^-^-^-^---------
-x--x--x--x--x--x--x-|8-8-8-8-8-8-8-8-8-8-8-8-8-8-8-8-5-5-5-5-5-5-5-5---------
-10-10-10-10-11-10-9-|6-6-6-6-6-6-6-6-5-5-5-5-5-5-5-5-3-3-3-3-3-3-3-3---------
---------------------|--------------------------------------------------------


----------------|-------------------------------------------------------------
----------------|-------------------------------------------------------------
----------------|^-^-^-^-^-^-^-^-^-^-^-^-^-^-^-^-^-^-^-^-^-^-^-^--------------
-^-^-^-^-^-^-^-^|8-8-8-8-8-8-8-8-8-8-8-8-8-8-8-8-5-5-5-5-5-5-5-5--------------
-6-6-6-6-6-6-6-6|6-6-6-6-6-6-6-6-5-5-5-5-5-5-5-5-3-3-3-3-3-3-3-3--------------
-4-4-4-4-4-4-4-4|-------------------------------------------------------------


----------------|-------------------------------------------------------------
----------------|-------------------------------------------------------------
----------------|-------------------------------------------------------------
-^-^-^-^-^-^-^-^|8-8-8-8-8-8-8-8-8-8-8-8-8-8-8-8-5-5-5-5-5-5-5-5--------------
-6-6-6-6-6-6-6-6|6-6-6-6-6-6-6-6-5-5-5-5-5-5-5-5-3-3-3-3-3-3-3-3--------------
-4-4-4-4-4-4-4-4|-------------------------------------------------------------


----------------|-------------------------------------------------------------
----------------|-------------------------------------------------------------
----------------|-------------------------------------------------------------
----------------|-8-8-8-8-8-8-8-8-8-8-8-8-8-8-8-8-5-5-5-5-5-5-5-5-------------
-6-6-6-6-6-6-6-6|-6-6-6-6-6-6-6-6-5-5-5-5-5-5-5-5-3-3-3-3-3-3-3-3-------------
-4-4-4-4-4-4-4-4|-------------------------------------------------------------


----------------|-------------------------------------------------------------
----------------|-------------------------------------------------------------
----------------|-------------------------------------------------------------
----------------|8-8-8-8-8-8-8-8-8-8-8-8-8-8-8-8-10-10-10-10-10-10-10-10------
-6-6-6-6-6-6-6-6|6-6-6-6-6-6-6-6-6-6-6-6-6-6-6-6-8--8--8--8--8--8--8--8-------
-4-4-4-4-4-4-4-4|-------------------------------------------------------------


------------------------------------------------------------------------------
------------------------------------------------------------------------------
------------------------------------------------------------------------------
-10-10-10-10-10-10-10-10-13-13-13-13-13-13-13-13-13-13-13-13-13-13-13-13------
-8--8--8--8--8--8--8--8--11-11-11-11-11-11-11-11-11-11-11-11-11-11-11-11------
------------------------------------------------------------------------------


------------------------------------------------|-----------------------------
------------------------------------------------|-----------------------------
------------------------------------------------|-----------------------------
-16-16-16-16-16-16-16-16-16-16-16-16-16-16-16-16|-8-8-8-8-8-8-8-8-8-8-8-8-----
-14-14-14-14-14-14-14-14-14-14-14-14-14-14-14-14|-6-6-6-6-6-6-6-6-6-6-6-6-----
------------------------------------------------|-----------------------------


------------------------------------------------------------------------------
------------------------------------------------------------------------------
------------------------------------------------------------------------------
-8-8-8-8-10-10-10-10-10-10-10-10-10-10-10-10-10-10-10-10-13-13-13-13----------
-6-6-6-6-8--8--8--8--8--8--8--8--8--8--8--8--8--8--8--8--11-11-11-11----------
------------------------------------------------------------------------------


------------------------------------------------------------------------------
------------------------------------------------------------------------------
------------------------------------------------------------------------------
-13-13-13-13-13-13-13-13-13-13-13-13-16-16-16-16-16-16-16-16-16-16-16-16------
-11-11-11-11-11-11-11-11-11-11-11-11-14-14-14-14-14-14-14-14-14-14-14-14------
------------------------------------------------------------------------------


------------|-----------------------------|----------------------------|------
------------|-----------------------------|----------------------------|------
------------|-8-8-8-8-8-7-7---------------|-8-8-8-8-8-7-7--------------|------
-16-16-16-16|-x-x-x-x-x-x-x--8-8-8-8-8-6-6|-x-x-x-x-x-x-x-8-8-8-8-8-6-6|------
-14-14-14-14|-6-6-6-6-6-5-5--x-x-x-x-x-x-x|-6-6-6-6-6-5-5-x-x-x-x-x-x-x|------
------------|----------------6-6-6-6-6-4-4|---------------6-6-6-6-6-4-4|------


------------------------------|-----------------------------|-----------------
------------------------------|-----------------------------|-----------------
-8-8-8-8-8-7-7----------------|-8-8-8-8-8-7-7---------------|-----------------
-x-x-x-x-x-x-x--8-8-8-8-8-6-6-|-x-x-x-x-x-x-x--8-8-8-8-8-6-6|-8-8-8-8--8---8--
-6-6-6-6-6-5-5--x-x-x-x-x-x-x-|-6-6-6-6-6-5-5--x-x-x-x-x-x-x|-6-6-6-6--6---6--
----------------6-6-6-6-6-4-4-|----------------6-6-6-6-6-4-4|-----------------


----------------------------------------------|-------------------------------
----------------------------------------------|-------------------------------
----------------------------------------------|-------------------------------
-----------------6-6-6-6--6---6---------------|-8-8-8-8--8---8----------------
-8-8-8-8--8---8--4-4-4-4--4---4-6-6-6-6--6---6|-6-6-6-6--6---6-8-8-8-8--8--8--
-6-6-6-6--6---6-----------------4-4-4-4--4---4|----------------6-6-6-6--6--6--


------------------------------|-----------------------------------------------
------------------------------|-----------------------------------------------
------------------------------|-----------------------------------------------
-6-6-6-6--6---6---------------|-8-8-8-8--8---8----------------6-6-6-6--6---6--
-4-4-4-4--4---4-6-6-6-6--6---6|-6-6-6-6--6---6-8-8-8-8--8---8-4-4-4-4--4---4--
----------------4-4-4-4--4---4|----------------6-6-6-6--6---6-----------------


---------------|------------------------------------------------------------|-
---------------|------------------------------------------------------------|-
---------------|------------------------------------------------------------|-
---------------|-8-8-8-8--8---8----------------6-6-6-6--6---6---------------|-
-6-6-6-6--6---6|-6-6-6-6--6---6-8-8-8-8--8---8-4-4-4-4--4---4-6-6-6-6--6---6|-
-4-4-4-4--4---4|----------------6-6-6-6--6---6----------------4-4-4-4--4---4|-


------------------------------------------------------------|-----------------
------------------------------------------------------------|-----------------
------------------------------------------------------------|-----------------
-8-8-8-8--8---8----------------6-6-6-6--6---6---------------|-8-8-8-8--8---8--
-6-6-6-6--6---6-8-8-8-8--8---8-4-4-4-4--4---4-6-6-6-6--6---6|-6-6-6-6--6---6--
----------------6-6-6-6--6---6----------------4-4-4-4--4---4|-----------------


---------------------------------------------|--------------------------------
---------------------------------------------|--------------------------------
---------------------------------------------|--------------------------------
----------------6-6-6-6--6---6---------------|8-8-8-8-8-8-8-8-8-8-8-8-8-8-8-8-
-8-8-8-8--8---8-4-4-4-4--4---4-6-6-6-6--6---6|6-6-6-6-6-6-6-6-6-6-6-6-6-6-6-6-
-6-6-6-6--6---6----------------4-4-4-4--4---4|--------------------------------

[ Tab from: http://www.guitartabs.cc/tabs/s/sum_41/makes_no_difference_tab_ver_8.html ]
------------------------------------------------------------------------------
------------------------------------------------------------------------------
------------------------------------------------------------------------------
-10-10-10-10-10-10-10-10-10-10-10-10-10-10-10-10-13-13-13-13-13-13-13-13------
-8--8--8--8--8--8--8--8--8--8--8--8--8--8--8--8--11-11-11-11-11-11-11-11------
------------------------------------------------------------------------------


------------------------------------------------------------------------|-----
------------------------------------------------------------------------|-----
------------------------------------------------------------------------|-----
-13-13-13-13-13-13-13-13-16-16-16-16-16-16-16-16-16-16-16-16-16-16-16-16|-----
-11-11-11-11-11-11-11-11-14-14-14-14-14-14-14-14-14-14-14-14-14-14-14-14|-----
------------------------------------------------------------------------|-----


------------------------------------------------------------------------------
------------------------------------------------------------------------------
------------------------------------------------------------------------------
-8-8-8-8-8-8-8-8-8-8-8-8-8-8-8-8-10-10-10-10-10-10-10-10-10-10-10-10----------
-6-6-6-6-6-6-6-6-6-6-6-6-6-6-6-6-8--8--8--8--8--8--8--8--8--8--8--8-----------
------------------------------------------------------------------------------


------------------------------------------------------------------------------
------------------------------------------------------------------------------
------------------------------------------------------------------------------
-10-10-10-10-13-13-13-13-13-13-13-13-13-13-13-13-13-13-13-13-16-16-16-16------
-8--8--8--8--11-11-11-11-11-11-11-11-11-11-11-11-11-11-11-11-14-14-14-14------
------------------------------------------------------------------------------


------------------------------------|-----------------------------------------
------------------------------------|-----------------------------------------
------------------------------------|-12-12-12-12-13-12-10--------------------
-16-16-16-16-16-16-16-16-16-16-16-16|-x--x--x--x--x--x--x---------------------
-14-14-14-14-14-14-14-14-14-14-14-14|-10-10-10-10-11-10-8---------------------
------------------------------------|-----------------------------------------


--------------------|-----------------------------------------|---------------
--------------------|-----------------------------------------|---------------
-12-12-12-12-13-12-8|-12-12-12-12-13-12-10-12-12-12-12-13-12-8|---------------
-x--x--x--x--x--x--x|-x--x--x--x--x--x--x--x--x--x--x--x--x--x|---------------
-10-10-10-10-11-10-6|-10-10-10-10-11-10-8--10-10-10-10-11-10-6|---------------
--------------------|-----------------------------------------|---------------


-----------------------------------------|------------------------------------
-----------------------------------------|------------------------------------
-12-12-12-12-13-12-10-12-12-12-12-13-12-8|12-12-12-12-13-12-10-12-12-12-12----
-x--x--x--x--x--x--x--x--x--x--x--x--x--x|x--x--x--x--x--x--x--x--x--x--x-----
-10-10-10-10-11-10-8--10-10-10-10-11-10-6|10-10-10-10-11-10-8--10-10-10-10----
-----------------------------------------|------------------------------------


--------|------------------------------|---------------------------------|----
--------|------------------------------|---------------------------------|----
-13-12-8|------------------------------|--------------------------7-7-7--|----
-x--x--x|-5-xx-6h8-8-8-8--2-xx-3h5-66-5|-5-xx-6h8-8-8-8--2-xx-3h5-x-x-x-5|----
-11-10-6|-6-xx-6---8-8-8--3-xx-3---66-6|-6-xx-6---8-8-8--3-xx-3---5-5-5-6|----
--------|----------6-6-6---------------|---------------------------------|----








==========================================================================

Author/Artist: SUM 41
Title: Makes No Difference
Album: Half Hour Of Power
Transcribed by:diablo of violent sponges
Email: supppdawg@yahoo.com

This is pretty much it! questions, comments, corrections? Email them to 
me!


structure

Intro 4X
Guitar 2 Intro 1X (come in on the the 2X of intro)
Verse 4X
Chorus 2X
Guitar 2 Intro 1X (again)
Verse 4X
Chorus 2X
Thingy 4X
Just bass and this 1X
Chorus 2X
Guitar 4 Intro 1X
Intro 2X
Guitar 2 Intro 2X
________________________________




Intro
----------------------------------------------------------
----------------------------------------------------------
----------------------------------------------------------
---8--x-x-6h8-------------------------6-6-5-x-x-x---------
---6--x-x-----8-8-8-x-x-x-10-x-x-8h10-6-6-6-x-x-x---------
--------------6-6-6-x-x-x-8--x-x------4-4-4-x-x-x---------

Guitar 2 Intro
-----------------------------------------------------------
-----------------------------------------------------------
---8-8-8-8--8-8-8-8-8-8--8-8-8-8--13-13-12-12-12-12--------
-----------------------------------------------------------
---6-6-6-6--6-6-6-6-6-6--6-6-6-6--11-11-10-10-10-10---------
---------------------------------------------------------


----------------------------------------------------------
----------------------------------------------------------
---8-8-8-8--8-8-8-8-8-8--8-8-8-8--10-10-12-12-12-12--------
-----------------------------------------------------------
---6-6-6-6--6-6-6-6-6-6--6-6-6-6--8--8--10-10-10-10--------
-----------------------------------------------------------

Verse
-----------------------------------------------------------
-----------------------------------------------------------
-----------------------------------------------------------
-8-8-8-8-8-8-8-8-8-8-8-8-8-8-8-8---------------------------
-6-6-6-6-6-6-6-6-5-5-5-5-5-5-5-5---------------------------
----------------------------------------------------------

----------------------------------------------
--------------------------------------------
---------------------------------------------
---------------------------------------------
10-10-10-10-10-10-10-10-6-6-6-6-6-6-6-6------
8--8--8--8--8--8--8--8--4-4-4-4-4-4-4-4------


Chorus
---------------------------------------------------------
----------------------------------------------------------
-----------------------------------------------------------
-8-8-8-8-8-8-8-8-8-8-8-8-8-8-8-8--------------------------
-6-6-6-6-6-6-6-6-6-6-6-6-6-6-6-6---------------------------
----------------------------------------------------------


----------------------------------------------------------
---------------------------------------------------------
-----------------------------------------------------------
-8--8--8--8--8--8--8--8--8--8--8--8--8--8--8--8------------
-10-10-10-10-10-10-10-10-10-10-10-10-10-10-10-10------------
-----------------------------------------------------------


-----------------------------------------------------------
----------------------------------------------------------
-----------------------------------------------------------
----------------------------------------------------------
-6-6-6-6-6-6-6-6-6-6-6-6-6-6-6-6-------------------------
-4-4-4-4-4-4-4-4-4-4-4-4-4-4-4-4-------------------------


-----------------------------------------------------------
----------------------------------------------------------
---------------------------------------------------------
--------------------------------------------------------
9-9-9-9-9-9-9-9-9-9-9-9-9-9-9-9---------------------
7-7-7-7-7-7-7-7-7-7-7-7-7-7-7-7-------------------------



Thingy
-----------------------------------------------------------
-----------------------------------------------------------
-----------------------------------------------------------
--8--8-8-8-8-8-8-------------------------------------------
--6--6-6-6-5-5-5-8-8-8-6-6-6-6------------------------------
-----------------6-6-6-4-4-4-4------------------------------


Just bass and this
----15------------15-----------15---------15--------15-----
-------16------------16-----------16---------16--------16--
----------15------------15-----------15---------15-------15
-----------------------------------------------------------
-----------------------------------------------------------
-----------------------------------------------------------




by diablo of violent sponges

=========================================================

-------------------------------------------------------------------------------
			MAKES NO DIFFERENCE - Sum-41
-------------------------------------------------------------------------------

By: Jake Shenker	shenkj@hotmail.com
    Montreal, Quebec

Intro (guitar 1)
e|-----------------------------------------------------------|
B|-----------------------------------------------------------|
G|-8---------------------------------------------------------|
D|-8-------6-8--8--8--8-----------10-------------------------|
A|-6--x-x-------8--8--8-----------10-----8-10---11--11--10---| x4
E|--------------6--6--6----x-x-x--8--x-x---------------------|

Intro (guitar 2, start second time)
e|-----------------------------------------------------------|
B|-----------------------------------------------------------|
G|-8---------------------------------------------13--13--13--|
D|-x----------------------------------------------x---x---x--|
A|-6---------------------------------------------11--11--11--|
E|-----------------------------------------------------------|

e|-----------------------------------------------------------|
B|-----------------------------------------------------------|
G|-8--8--8-8--8--8--8------8-8-8-8---8---8--8----13--13--12--|
D|-x--x--x-x--x--x--x------x-x-x-x---x---x--x-----x---x---x--|
A|-6--6--6-6--6--6--6------6-6-6-6---6---6--6----11--11--10--|
E|-----------------------------------------------------------|

e|-----------------------------------------------------------|
B|-----------------------------------------------------------|
G|-8--8--8-8--8--8--8------8-8-8-8---8---8--8---10-10--12----|
D|-x--x--x-x--x--x--x------x-x-x-x---x---x--x----x--x---x----|
A|-6--6--6-6--6--6--6------6-6-6-6---6---6--6----8--8--10----|
E|-----------------------------------------------------------|

Verse (guitar 1, palm-mute)
e|-----------------------------------------------------------|
B|-----------------------------------------------------------|
G|--8-----7--------------------------------------------------|
D|--8-----7----10-----8--------------------------------------|
A|--6-----5----10-----8--------------------------------------| x4
E|--------------8-----6--------------------------------------|

Third time: Verse (guitar 2)       play each chord many times
e|-----------------------------------------------------------|
B|-----------------------------------------------------------|
G|--8--13--12--10-----8--13--12--13--------------------------|
D|--x---x---x---x-----x---x---x---x--------------------------|
A|--6--11--10---8-----6--11--10--11--------------------------| x2
E|-----------------------------------------------------------|

Chorus (both guitars)
e|-----------------------------------------------------------|
B|-----------------------------------------------------------|
G|--8----10--------------------------------------------------|
D|--8----10-----6-----9--------------------------------------|
A|--6-----8-----6-----9--------------------------------------| x4
E|--------------4-----7--------------------------------------|

Post-chorus (guitar 1)
e|-----------------------------------------------------------|
B|-----------------------------------------------------------|
G|--8--------------------------------------------------------|
D|--8----8---10----6-----------------------------------------|
A|--6----8---10----6-----------------------------------------| x4
E|-------6----8----4-----------------------------------------|

Post-chorus (guitar 2)
e|-----------------------------------------------------------|
B|-----------------------------------------------------------|
G|-----------------------------------------------------------|
D|-----------------------------------------------------------|
A|--6-6-6-6-11-10-8-8--6-6-6-6-8-11-10-----------------------|
E|-----------------------------------------------------------|

e|-----------------------------------------------------------|
B|-----------------------------------------------------------|
G|-----------------------------------------------------------|
D|-----------------------------------------------------------|
A|--6-6-6-6-13-11-10-11--6-6-6-6-10-11-8---------------------|
E|-----------------------------------------------------------|

Interlude Part 1 (guitar 1)
e|-----------------------------------------------------------|
B|-----------------------------------------------------------|
G|--8----7---------------------------------------------------|
D|--8----7----8----6-----------------------------------------|
A|--6----5----8----6-----------------------------------------| x4
E|------------6----4-----------------------------------------|

Interlude Part 1 (guitar 1)
e|-----------------------------------------------------------|
B|-----------------------------------------------------------|
G|--8--------------------------------------------------------|
D|--x----continuously----------------------------------------|
A|--6--------------------------------------------------------| x4
E|-----------------------------------------------------------|

Interlude Part 2 (guitar 1, palm-muted)
e|-----------------------------------------------------------|
B|-----------------------------------------------------------|
G|--8--------------------------------------------------------|
D|--8----8---10----6-----------------------------------------|
A|--6----8---10----6-----------------------------------------| x4
E|-------6----8----4-----------------------------------------|

Interlude Part 2 (guitar 2, harmonics)
e|-----------------------------------------------------------|
B|-----------------------------------------------------------|
G|--5*----------harmonics------------------------------------|
D|----5*-----------------------------------------------------|
A|------7*---------------------------------------------------| x4
E|-----------------------------------------------------------|

-------------------------------------------------------------------------------






Comments