Sum 41 - Makes No Difference Chords & Tabs

 

Makes No Difference Chords & Tabs

Sum 41 Chords & Tabs

Version: 4 Type: Tab 0 ratings
1 star 2 stars 3 stars 4 stars 5 stars
comments

Makes No Difference Tab

Intro and outro
e-------------------------------------------------------|
B-------------------------------------------------------|
G-----pm.-----------------------------------------------|
D--5--5-5—6h8-----------pm.-------6-6-5-----------------| play 4X
A--6—-6-6-----5-5-5--6--6-6—8h10--6-6-6-----------------|
E-------------6-6-6--8--8-8-----------------------------|

Listen to song for rhythm: 


Verse 1:
e-|---------------------------------------------------------------------|
B-|---------------------------------------------------------------------|
G-|---------------------------------------------------------------------| Play 2X     
D-|--8-8-8-8-8-8-8-8--8-8-8-8-8-8-8-8--5-5-5-5-5-5-5-5------------------|
A-|--6-6-6-6-6-6-6-6--5-5-5-5-5-5-5-5--3-3-3-3-3-3-3-3--6-6-6-6-6-6-6-6-|
E-|-----------------------------------------------------4-4-4-4-4-4-4-4-|
  pm. . . . . . . . . . . . . . . . . . . . . . . . . . . . . . . . . . 

Verse 2:
e-|---------------------------------------------------------------------|
B-|---------------------------------------------------------------------| 
G-|---------------------------------------------------------------------| play 2X 
D-|--8-8-8-8-8-8-8-8--8-8-8-8-8-8-8-8--5-5-5-5-5-5-5-5------------------| 
A-|--6-6-6-6-6-6-6-6--5-5-5-5-5-5-5-5--3-3-3-3-3-3-3-3--6-6-6-6-6-6-6-6-|
E-|-----------------------------------------------------4-4-4-4-4-4-4-4-|
		not palm muted
[ Tab from: http://www.guitartabs.cc/tabs/s/sum_41/makes_no_difference_tab_ver_4.html ]
Chorus: 
E-|---------------------------------------------------------------------------|
B-|---------------------------------------------------------------------------|Play 2X
G-|--------------------pm. . . . . . .-----pm. . . . . . .--------------------|play each
D-|--8-----4--8-----4--4-4-4-4-4-4-4-4--4--4-4-4-4-4-4-4-4--------------------|chord 16
A-|--6-3-6-2--6-3-6-2--2-2-2-2-2-2-2-2--2--2-2-2-2-2-2-2-2--------------------|times
E-|---1-4------1-4------------------------------------------------------------|

After chorus:
e-|-----------------------------------|
B-|-----------------------------------|
G-|-----------------------------------|play 2X
D-|--9---6----------------------------|
A-|--7-9-4-7--------------------------|
E-|----7---5--------------------------|

Bridge 1:
e-|--------------------------------------------------------------|
B-|--------------------------------------------------------------| 
G-|--------------------------------------------------------------| play X 
D-|--8--8-8--8---8-8-8--8-8--------------------------------------| 
A-|--6--6-6--6---5-5-5--5-5----8--8-8--8---6-6-6--6-6------------|
E-|----------------------------6--6-6--6---4-4-4--4-4------------|
		


Bridge 2:

e-|--------------------------------------------------------------------|
B-|--------------------------------------------------------------------|  Play 6X
G-|--------------------------------------------------------------------|
D-|-9--9-9--9-9-9-------------------6--6-6--6-6-6----------------------|
A-|-7--7-7--7-7-7---9--9-9--9-9-9---4--4-4--4-4-4---7--7-7--7-7-7------|
E-|-----------------7--7-7--7-7-7-------------------5--5-5--5-5-5------|

Song order

Intro               4X
Verse1              2X
Verse2              2X
Chorus              2X
After chorus        2X
Verse1              2X
Verse2              2X
Chorus              2X
Bridge 1            2X
Bridge 2            6X
Chorus              4X
After chorus        4X
Outro               2X

Comments