Sum 41 - Makes No Difference Chords & Tabs

 

Makes No Difference Chords & Tabs

Sum 41 Chords & Tabs

Version: 2 Type: Tab 0 ratings
1 star 2 stars 3 stars 4 stars 5 stars
comments

Makes No Difference Tab

   
this is my first tab that i have ever mad but i think this tab is
absolutely correct I'm almost 100% positive about this

tune all keys down 1/2 a step

Eb----------------------------------------------|
Bb----------------------------------------------|
Gb----------------------------------------------|
Db--6xx-7h9--------------------------66---------|x2
Ab--7xx------666----------8xx-9h11---77--6------|
Eb-----------777---770----9xx-------------------|


Eb-----------------------------------------------|
Bb-----------------------------------------------|
Gb-999 9999 999--1414--13---999 9999 999--1111-13|
Db-xxx xxxx xxx--x x---x----xxx xxxx xxx--x-x--x |
Ab-777 7777 777--1212--11---777 7777 777--9-9--11|
Eb-----------------------------------------------|

           This is for all verses until i say stop
Eb--------------------------------------|
Bb--------------------------------------|
Gb--------------------------------------|
Db-9xxxxxx--9xxxxxx--6xxxxxx--2xxxxxx---|x2
Ab-7xxxxxx--6xxxxxx--4xxxxxx--0xxxxxx---|
Eb--------------------------------------|


Eb--------------------------------------|
Bb--------------------------------------|
Gb--------------------------------------|
Db-9999999--9999999--6666666--2222222---|x2
Ab-7777777--6666666--4444444--0000000---|
Eb--------------------------------------|


Eb--------------------------------------------------------------------------|
Bb--------------------------------------------------------------------------|
Gb--------------------------------------------------------------------------|
Db-99-999-999-999-----------------------------------------------------------|
Ab-77-777-777-777--44-444-444-444--77-777-777-777--1010-101010-101010-101010|
Eb-----------------22-222-222-222--55-555-555-555--8-8--8-8-8--8-8-8--8-8-8-|


Eb------------------------------------------------------------------|
Bb------------------------------------------------------------------|
Gb------------------------------------------------------------------|
Db-99-999-999-999---------------------------------------------------|
Ab-77-777-777-777--44-444-444-444--77-777-777-777--10xxxxxx-10xxxxxx|
Eb-----------------22-222-222-222--55-555-555-555--8-xxxxxx-8-xxxxxx|

                          stop

Eb-----------------------------------------|
Bb-----------------------------------------|
Gb-99 99---11-13 11--13-13-13-13---14-14-14|
Db-xx xx---x--x--x---x--x--x--x----x--x--x-|
Ab-77 77---9--11-9---11-11-11-11---12-12-12|
Eb-----------------------------------------|


Eb------------------------------------------|
Bb------------------------------------------|
Gb-99 99---16-14-13---13-13-13-13--14--16--9|
Db-xx xx---x--x--x----x--x--x--x---x---x---x|
Ab-77 77---14-12-11---11-11-11-11--12--14--7|
Eb------------------------------------------|


then you do another verse which is the same thing as the other one
and then you go

[ Tab from: http://www.guitartabs.cc/tabs/s/sum_41/makes_no_difference_tab_ver_2.html ]
Eb-------------------------------------------------------------------|
Bb-------------------------------------------------------------------|
Gb-9-999-999-9999999-999-999-999999-9-999-999-999999-9-999-999-999999|
Db-x-xxx-xxx-xxxxxxx-xxx-xxx-xxxxxx-x-xxx-xxx-xxxxxx-x-xxx-xxx-xxxxxx|
Ab-7-777-777-7777777-777-777-777777-7-777-777-777777-7-777-777-777777|
Eb-------------------------------------------------------------------|

             Palm muted
Eb-----------------------------------------------|
Bb-----------------------------------------------|
Gb-----------------------------------------------|
Db-9-9999----------------------------------------|x2
Ab-7-7777--4-4444--7-7777--11-11-11-11-11--------|
Eb---------2-2222--5-5555--9-9--9--9--9----------|



Eb--------------------------------------------------------------------------|
Bb--------------------------------------------------------------------------|
Gb--------------------------------------------------------------------------|
Db-99-999-999-999-----------------------------------------------------------|
Ab-77-777-777-777--44-444-444-444--77-777-777-777--1010-101010-101010-101010|
Eb-----------------22-222-222-222--55-555-555-555--8-8--8-8-8--8-8-8--8-8-8-|



Eb------------------------------------------------------------------|
Bb------------------------------------------------------------------|
Gb------------------------------------------------------------------|
Db-99-999-999-999---------------------------------------------------|
Ab-77-777-777-777--44-444-444-444--77-777-777-777--10xxxxxx-10xxxxxx|
Eb-----------------22-222-222-222--55-555-555-555--8-xxxxxx-8-xxxxxx|



Eb-----------------------------------------|
Bb-----------------------------------------|
Gb-99 99---11-13 11--13-13-13-13---14-14-14|
Db-xx xx---x--x--x---x--x--x--x----x--x--x-|
Ab-77 77---9--11-9---11-11-11-11---12-12-12|
Eb-----------------------------------------|


Eb------------------------------------------|
Bb------------------------------------------|
Gb-99 99---16-14-13---13-13-13-13--14--16--9|
Db-xx xx---x--x--x----x--x--x--x---x---x---x|
Ab-77 77---14-12-11---11-11-11-11--12--14--7|
Eb------------------------------------------|



Eb----------------------------------------------|
Bb----------------------------------------------|
Gb----------------------------------------------|
Db--6xx-7h9--------------------------66---------|
Ab--7xx------666----------8xx-9h11---77--6------|
Eb-----------777---770----9xx-------------------|



Eb----------------------------------------------|
Bb----------------------------------------------|
Gb----------------------------------------------|
Db--6xx-7h9--------------------------666--------|
Ab--7xx------666----------8xx-9h11---777--6-----|
Eb-----------777---770----9xx-------------------|



thats it thanx for using my tab i hope youll be happy with it because
most of it sound 100% right to me but its my first tab so anyway nvm 
jus good luck with this 



Comments