Sum 41 - Makes No Difference Chords & Tabs

 

Makes No Difference Chords & Tabs

Sum 41 Chords & Tabs

Version: 13 Type: Tab 0 ratings
1 star 2 stars 3 stars 4 stars 5 stars
comments

Makes No Difference Tab

Intro
E|------------------------------------------------------|
B|------------------------------------------------------|
G|-8-x---------------5x---------------------------------|
D|-8-x-6h8--888-xx---5x--3-5--6-6---6-------------------|
A|-6-x------888-xx---3x-------6-6-5-6-------------------|
E|----------666-xx------------------4-------------------|

    x2

    Gtr 2
e|----------------------------------------------------------------------|
b|--8-8-8-x-8-8-8--8-8-8-8-8-8-8 8-8--8-8-8-x-8-8-8--8-8-8-8-8-8-6-6-8--|
g|--8-8-8-x-8-8-8--8-8-8-8-8-8-8-8-8--8-8-8-x-8-8-8--8-8-8-8-8-8-7-7-8--|
g|----------------------------------------------------------------------|
d|----------------------------------------------------------------------|
a|----------------------------------------------------------------------|
E|----------------------------------------------------------------------|

    both guitars x2

last time there is a slight change

E|--------------------------------------------------------|
B|--------------------------------------------------------|
G|-8------------------------------------------------------|
D|-8---6h8--888-xx--10-x--10------------------------------|
A|-6--------888-xx--10-x--8h10--8--8h10-------------------|
E|----------666-xx--8--x----------------------------------|

Verse: Both Gtrs
e|---------------------------------------------------------------------|
b|---------------------------------------------------------------------|
g|--8-8-8-8-8-8-8-8--8-8-8-8-8-8-8-8--5-5-5-5-5-5-5-5------------------|
d|--8-8-8-8-8-8-8-8--8-8-8-8-8-8-8-8--5-5-5-5-5-5-5-5--6-6-6-6-6-6-6-6-|
a|--6-6-6-6-6-6-6-6--5-5-5-5-5-5-5-5--3-3-3-3-3-3-3-3--6-6-6-6-6-6-6-6-|
E|-----------------------------------------------------4-4-4-4-4-4-4-4-|
     p.m. x2
     no p.m. x2

Chorus: both Gtrs
e|---------------------------------------------------------------------------------|
b|---------------------------------------------------------------------------------|
g|-8--8-8-8--8-8-8-8---------------------------------------------------------------|
d|-8--8-8-8--8-8-8-8--3--3-3-3--3-3-3-3--6--6-6-6--6-6-6-6--9--9-9-9--9-9-9--8-8-8-|
a|-6--6-6-6--6-6-6-6--3--3-3-3--3-3-3-3--6--6-6-6--6-6-6-6--9--9-9-9--9-9-9--8-8-8-|
E|--------------------1--1-1-1--1-1-1-1--4--4-4-4--4-4-4-4--7--7-7-7--7-7-7--6-6-6-|

    x2 

   Gtr 1
e|------------------------------------------------------------|
b|------------------------------------------------------------|
g|-8--8-8-8--8-8-----------------5--5-5-5--5-5----------------|
d|-8--8-8-8--8-8--8--8-8-8--8-8--5--5-5-5--5-5--6--6-6-6--6-6-|
a|-6--6-6-6--6-6--8--8-8-8--8-8--3--3-3-3--3-3--6--6-6-6--6-6-|
E|----------------6--6-6-6--6-6-----------------4--4-4-4--4-4-|

   Gtr 2
e|-----------------------------------------------------------------------------|
b|-8-x8-8--9-9-8--8-8-8-8-x8-8--6-6-8--8-8-8-8-x8-8--11-9-8--8-8-8-8-x8--6-8---|
g|-8-x8-8--8-8-8--8-8-8-8-x8-8--7-7-8--8-8-8-8-x8-8--8--8-8--8-8-8-8-x8--7-8-8-|
d|---------------------------------------------------------------------------8-|
a|-----------------------------------------------------------------------------|
E|-----------------------------------------------------------------------------|
[ Tab from: http://www.guitartabs.cc/tabs/s/sum_41/makes_no_difference_tab_ver_13.html ]
Verse: Both Gtrs
e|---------------------------------------------------------------------|
b|---------------------------------------------------------------------|
g|--8-8-8-8-8-8-8-8--8-8-8-8-8-8-8-8--5-5-5-5-5-5-5-5------------------|
d|--8-8-8-8-8-8-8-8--8-8-8-8-8-8-8-8--5-5-5-5-5-5-5-5--6-6-6-6-6-6-6-6-|
a|--6-6-6-6-6-6-6-6--5-5-5-5-5-5-5-5--3-3-3-3-3-3-3-3--6-6-6-6-6-6-6-6-|
E|-----------------------------------------------------4-4-4-4-4-4-4-4-|
     p.m. x2
     no p.m. x2


Chorus: both Gtrs
e|---------------------------------------------------------------------------------|
b|---------------------------------------------------------------------------------|
g|-8--8-8-8--8-8-8-8---------------------------------------------------------------|
d|-8--8-8-8--8-8-8-8--3--3-3-3--3-3-3-3--6--6-6-6--6-6-6-6--9--9-9-9--9-9-9--8-8-8-|
a|-6--6-6-6--6-6-6-6--3--3-3-3--3-3-3-3--6--6-6-6--6-6-6-6--9--9-9-9--9-9-9--8-8-8-|
E|--------------------1--1-1-1--1-1-1-1--4--4-4-4--4-4-4-4--7--7-7-7--7-7-7--6-6-6-|
   x2

Bridge: Gtr 1
e|----------------------------------------|
b|----------------------------------------|
g|8--8-8-8--8-8-8-8-x-x-5--5-5-5----------|
d|8--8-8-8--8-8-8-8-x-x-5--5-5-5--6-6-6-6-|
a|6--6-6-6--5-5-5-5-x-x-3--3-3-3--6-6-6-6-|
E|--------------------------------4-4-4-4-|
     x4


  bass plays a fast bit x4

e|------------|
b|---8--------|
g|-----8------|
d|-------8----|
a|------------|
E|------------|

  one guitar plays these 3 notes when they sing "ahhh-ahhh" during the bass bit

Chorus: both Gtrs
e|---------------------------------------------------------------------------------|
b|---------------------------------------------------------------------------------|
g|-8--8-8-8--8-8-8-8---------------------------------------------------------------|
d|-8--8-8-8--8-8-8-8--3--3-3-3--3-3-3-3--6--6-6-6--6-6-6-6--9--9-9-9--9-9-9--8-8-8-|
a|-6--6-6-6--6-6-6-6--3--3-3-3--3-3-3-3--6--6-6-6--6-6-6-6--9--9-9-9--9-9-9--8-8-8-|
E|--------------------1--1-1-1--1-1-1-1--4--4-4-4--4-4-4-4--7--7-7-7--7-7-7--6-6-6-|
   x2

   Gtr 1
e|------------------------------------------------------------|
b|------------------------------------------------------------|
g|-8--8-8-8--8-8-----------------5--5-5-5--5-5----------------|
d|-8--8-8-8--8-8--8--8-8-8--8-8--5--5-5-5--5-5--6--6-6-6--6-6-|
a|-6--6-6-6--6-6--8--8-8-8--8-8--3--3-3-3--3-3--6--6-6-6--6-6-|
E|----------------6--6-6-6--6-6-----------------4--4-4-4--4-4-|

   Gtr 2
e|-----------------------------------------------------------------------------|
b|-8-x8-8--9-9-8--8-8-8-8-x8-8--6-6-8--8-8-8-8-x8-8--11-9-8--8-8-8-8-x8--6-8---|
g|-8-x8-8--8-8-8--8-8-8-8-x8-8--7-7-8--8-8-8-8-x8-8--8--8-8--8-8-8-8-x8--7-8-8-|
d|---------------------------------------------------------------------------8-|
a|-----------------------------------------------------------------------------|
E|-----------------------------------------------------------------------------|
  Gtr 1 + Gtr 2 x4

Outro
E|--------------------------------------------------------|
B|--------------------------------------------------------|
G|-8------------------------------------------------------|
D|-8---6h8--888-xx--10-x--10------------------------------|
A|-6--------888-xx--10-x--8h10-11-11p10-------------------|
E|----------666-xx--8--x----------------------------------|
 
E|--------------------------------------------------------|
B|--------------------------------------------------------|
G|-8------------------------------------------------------|
D|-8---6h8--888-xx--10-x--10------------------------------|
A|-6--------888-xx--10-x--8h10-11-11 11-10----------------|
E|----------666-xx--8--x----------------------------------|
Comments