Sum 41 - Makes No Difference Chords & Tabs

 

Makes No Difference Chords & Tabs

Sum 41 Chords & Tabs

Version: 10 Type: Tab 0 ratings
1 star 2 stars 3 stars 4 stars 5 stars
comments

Makes No Difference Tab

the real way to play it

       Lead guitar
E---------------------------------------------------
B---------------------------------------------------
G--8-xx---------------------------------------------  (x4)
D--8-xx-8-h6--8-8-8-xxx-10--------------------------
A--6-xx-------8-8-8-xxx-10--8-10--11-11-10-10-10/0--
E-------------6-6-6-xxx-8---------------------------
[ Tab from: http://www.guitartabs.cc/tabs/s/sum_41/makes_no_difference_tab_ver_10.html ]
       Rythm guitar  Play after lead plays twice.
E----------------------------------
B----------------------------------
G--8-8-88-8-8-8-8-8-88--13-13--12--
D--8-8-88-8-8-8-8-8-88---x--x---x--
A--6-6-66-6-6-6-6-6-66--11-11--10--
E----------------------------------

E----------------------------------
B----------------------------------
G--8-8-88-8-8-8-8-8-88--10-10--12--
D--8-8-88-8-8-8-8-8-88---x--x---x--
A--6-6-66-6-6-6-6-6-66---8--8--10--
E----------------------------------

i would put the rset of the song but 
i'm a little tired of typing, and it's
to long any way...But any way theres the intro!






Comments