Sum 41 - Makes No Difference Chords & Tabs

 

Makes No Difference Chords & Tabs

Sum 41 Chords & Tabs

Version: 2 Type: Bass Tab 0 ratings
1 star 2 stars 3 stars 4 stars 5 stars
comments

Makes No Difference Bass Tab

------------------------------------------------------------------------------
			 Makes No Difference - Sum 41
------------------------------------------------------------------------------

By: Alex Kim

I've never really played bass before, but i thought i'd give it a try.
intro
G|---------------------------------------------------------------------------|
D|---------------------------------------------------------------------------|
A|--6-6-6----11-11-10--------------------------------------------------------|
E|---------------------------------------------------------------------------|

Main Riff x2
G|---------------------------------------------------------------------------|
D|---------------------------------------------------------------------------|
A|-6666----------------------------------------------------------------------|
E|------6666-8888-4444-------------------------------------------------------|

Verses x4
G|---------------------------------------------------------------------------|
D|---------------------------------------------------------------------------|
A|--6666-5555-3333-----------------------------------------------------------|
E|-----------------4444------------------------------------------------------|

Chorus x2
G|---------------------------------------------------------------------------|
D|---------------------------------------------------------------------------|
A|---------------------------------------------------------------------------|
E|-00000000-2222-2-2-4-5555-5-5-7-88888888-----------------------------------|


Main Riff x2
G|---------------------------------------------------------------------------|
D|---------------------------------------------------------------------------|
A|-6666----------------------------------------------------------------------|
E|------6666-8888-4444-------------------------------------------------------|

[ Tab from: http://www.guitartabs.cc/tabs/s/sum_41/makes_no_difference_btab_ver_2.html ]
Verses x4
G|---------------------------------------------------------------------------|
D|---------------------------------------------------------------------------|
A|--6666-5555-3333-----------------------------------------------------------|
E|-----------------4444------------------------------------------------------|


Chorus x2
G|---------------------------------------------------------------------------|
D|---------------------------------------------------------------------------|
A|---------------------------------------------------------------------------|
E|-00000000-2222-2-2-4-5555-5-5-7-88888888-----------------------------------|


Quiet little thingy x6
G|---------------------------------------------------------------------------|
D|---------------------------------------------------------------------------|
A|---------------------------------------------------------------------------|
E|--3--1--3--4---------------------------------------------------------------|


Chorus x2
G|---------------------------------------------------------------------------|
D|---------------------------------------------------------------------------|
A|---------------------------------------------------------------------------|
E|-00000000-2222-2-2-4-5555-5-5-7-88888888-----------------------------------|


Main Riff x4
G|---------------------------------------------------------------------------|
D|---------------------------------------------------------------------------|
A|-6666----------------------------------------------------------------------|
E|------6666-8888-4444-------------------------------------------------------|


G|---------------------------------------------------------------------------|
D|---------------------------------------------------------------------------|
A|-6666------------------6666---------------------11-11-11-10----------------|
E|------6666-8888-4444--------6666-8888--------------------------------------|
Comments