Sum 41 - Machine Gun Chords & Tabs

 

Machine Gun Chords & Tabs

Sum 41 Chords & Tabs

Version: 6 Type: Tab 0 ratings
1 star 2 stars 3 stars 4 stars 5 stars
comments

Machine Gun Tab

   
----------------------------------------------------------------------------
			    Machine Gun--Sum 41
----------------------------------------------------------------------------
Tabbed by: Carlos1989_sk8er
Email:Carlso1989_sk8er@yahoo.com

Tuning: Standard
4/4 this song is played fast
Struming is Down-Down-Down-Up thats how I play it and sounds great!
Intro
e|--------------------------------------------------------------------|
B|--------------------------------------------------------------------|
G|------------------------------666----------------------666----------|
D|------------666---444---333---6660---666---444---333---6660---------|
A|------------6660--4440--3330--444x---6660--4440--3330--444x---------|
E|-16\0-------444x--222x--111x---------444x--222x--111x---------------|
   Fast!
                         Verse1
e|----------------------------------------------------------------------|
B|----------------------------------------------------------------------|
G|----------------------------------------------------------------------|
D|-666---444---333---xxx6\xxx--xxxx--xxxx--x6x6--xxxx--xxxx--xxxx--xxxx-|
A|-6660--4440--3330--xxx6\xxx--xxxx--xxxx--x6x6--xxxx--xxxx--xxxx--xxxx-|
E|-444x--222x--111x--xxx4\444--4444--4444--4444--4444--4444--2222--2222-|

e|-------------------------------------------------------------------------|
B|-------------------------------------------------------------------------|
G|-xxxx--xxxx--------------------------------------------------------------|
D|-xxxx--xxxx--xxxx--x6x6--xxxx--xxxx--xxxx--xxxx--xxxx--xxxx--6666--6666--|
A|-4444--4444--xxxx--x6x6--xxxx--xxxx--xxxx--xxxx--xxxx--xxxx--6666--6666--|
E|-------------4444--4444--4444--4444--2222--2222--4444--4444--4444--4444--|

e|------------------------------------------------------------------------|
B|------------------------------------------------------------------------|
G|------------------------------------------------------------------------|
D|-------------------------6666--6666-------------------------------------|
A|-6666--6666--4444--4444--4444--4444--6666--6666--6666--6666--4444--4444-|
E|-4444--4444--2222--2222--------------4444--4444--4444--4444--2222--2222-|

e|--------------------------------------------------------------------------|
B|--------------------------------------------------------------------------|
G|--------------------------------------------------------------------------|
D|-6666--6666--------------4444--4444--3333--3333--6666--6666--6666--6~-5~--|
A|-4444--4444--6666--6666--4444--4444--3333--3333--6666--6666--6666--6~-3~--|
E|-------------4444--4444--2222--2222--1111--1111--4444--4444--4444--4~-3~--|

e|----------------------------------------------------------------------|
B|----------------------------------------------------------------------|
G|---------------------------------------------------------------6666---|
D|-4444--4444--3333--6666--6666--6666--6\4--6666---4444---3333---66660--|
A|-4444--4444--3333--6666--6666--6666--6\4--66660--44440--33330--4444x--|
E|-2222--2222--1111--4444--4444--4444--4\2--4444x--2222x--1111x---------|

e|--------------------------------------------------------------------------|
B|--------------------------------------------------------------------------|
G|----------------------6666---------------------------xxxx--xxxx-----------|
D|-6666---4444---3333---66660--xxxx--xxxx--xxxx--xxxx--xxxx--xxxx--xxxx-----|
A|-66660--44440--33330--4444x--xxxx--xxxx--xxxx--xxxx--4444--4444--xxxx-----|
E|-4444x--2222x--1111x---------4444--4444--2222--2222--------------4444-----|

e|--------------------------------------------------------------------------|
B|--------------------------------------------------------------------------|
G|-------------------------------xxxx--xxxx---------------------------------|
D|-x6x6--xxxx--xxxx--xxxx--xxxx--xxxx--xxxx--6666--6666--4444--4444--3333---|
A|-x6x6--xxxx--xxxx--xxxx--xxxx--4444--4444--6666--6666--4444--4444--3333---|
E|-x4x4--4444--4444--2222--2222--------------4444--4444--2222--2222--1111---|
[ Tab from: http://www.guitartabs.cc/tabs/s/sum_41/machine_gun_tab_ver_6.html ]
e|--------------------------------------------------------------------------|
B|--------------------------------------------------------------------------|
G|--------------------------------------------------------------------------|
D|-3333--6666--6666--6666--6\5--4444--4444--3333--3333--6666--6666--6666----|
A|-3333--6666--6666--6666--6\5--4444--4444--3333--3333--6666--6666--6666----|
E|-1111--4444--4444--4444--4\3--2222--2222--1111--1111--4444--4444--4444----|

e|--------------------------------------------------------------------------|
B|--------------------------------------------------------------------------|
G|--------------------------------------------------------------------------|
D|-6-------8-------6~~~-6-6~--666--6666--6-------8-------8------6------6~---|
A|-6-(X16)-8-(X16)-6~~~-6-6~--666--6666--6-(X16)-8-(X16)-8-(X8)-6-(X8)-6~---|
E|-4-------6-------4~~~-4-4~--444--4444--4-------6-------6------4------4~---|

Solo
e|--------------------------------------------------------------------------|
B|-14~-13-14-13-14-16-14------------------13------14-13-14-13-14-13-14-16~--|
G|-----------------------13~--11-13-11-13----13~----------------------------|
D|--------------------------------------------------------------------------|
A|--------------------------------------------------------------------------|
E|--------------------------------------------------------------------------|

e|-13------------------------------------------------------------------------|
B|----16-14-13-14-13----------------14-13-----------------14-13--------------|
G|-------------------15-13-11-13-11-------13~-13-11-13-11-------13~----------|
D|---------------------------------------------------------------------------|
A|---------------------------------------------------------------------------|
E|---------------------------------------------------------------------------|

e|-----------------------11-13-11-------------------------------------------|
B|-------------14-13--------------14-13-------------------------------------|
G|-13-11-13-11-------13~----------------15-13~------------------------------|
D|--------------------------------------------------------------------------|
A|--------------------------------------------------------------------------|
E|--------------------------------------------------------------------------|

e|--------------------------------------------------------------------------|
B|--------------------------------------------------------------------------|
G|--------------------------------------------------------------------------|
D|--------------------------------------------------------------------------|
A|--------------------------------------------------------------------------|
E|-2-1-2-1--2-4-2-1--2-1-2-1--2-4-2-1-2-1-2-1--2-4-2-1--2-1-2-1--2-4-2-1----|

e|--------------------------------------------------------------------------|
B|--------------------------------------------------------------------------|
G|--------------------------------------------------------------------------|
D|--------------------------------------------------------------------------|
A|--------------------------------------------------------------------------|
E|-2-1-2-1--2-4-2-1--2-1-2-1--2-4-2-1-2-1-2-1--2-4-2-1--2-1-2-1--2-4-2-1----|

e|--------------------------------------------------------------------------|
B|--------------------------------------------------------------------------|
G|-------------------666----------------------------------------------------|
D|-666---444---333---6660-(X4)--6666--66--66--6666--66--6-------------------|
A|-6660--4440--3330--444x-------6666--66--66--6666--66--6-(X32)-------------|
E|-444x--222x--111x-------------4444--44--44--4444--44--4-------------------|

Thats it enjoy! Any questions E-mail me. Plese rate! and if you see any mistakes tell me 
did this kinda fast. the tab i know is 100% correct.

| /  slide up
| \  slide down
| h  hammer-on
| p  pull-off
| ~  vibrato
| +  harmonic
| x  Mute note
============================================================================
Comments