Sum 41 - Machine Gun Chords & Tabs

 

Machine Gun Chords & Tabs

Sum 41 Chords & Tabs

Version: 5 Type: Tab 0 ratings
1 star 2 stars 3 stars 4 stars 5 stars
comments

Machine Gun Tab

Sum 41 - Machine Gun (by Mr.Lavon)

Use standart tuning.

m-Palm Mute

Intro:
E|-------|------------------------|
B|-------|------------------------|
G|-------|------------------6--6--|
D|--13\--|6--6--4--4--3--3--6--6--|x4
A|--13\--|6--6--4--4--3--3--4--4--|
E|--11\--|4--4--2--2--1--1--------|

E|------------------------------|
B|------------------------------|
G|------------------------------|
D|--6-----666666666666----6--6--|
A|--6-----666666666666----6--6--|
E|--4-----444444444444----4--4--|
          mmmmmmmmmmmm

Verse:
E|---------------------------------------|
B|---------------------------------------|
G|-----------------66666666--------------|
D|--6666666444444446666666666666---6--6--|
A|--6666666444444444444444466666---6--6--|
E|--444444422222222--------44444---4--4--|
    mmmmmmmmmmmmmmmmmmmmmmmmmmmm

E|-------------------------------------|
B|-------------------------------------|
G|-----------------66666666------------|
D|--6666666444444446666666666666666----|
A|--6666666444444444444444466666666----|
E|--444444422222222--------44444444----|
    mmmmmmmmmmmmmmm


E|------------------------------------|
B|------------------------------------|
G|------------------6-6-6-6-----------|
D|--6-6-6-6-4-4-4-4-6-6-6-6-6-6-6-6---|x2
A|--6-6-6-6-4-4-4-4-4-4-4-4-6-6-6-6---|
E|--4-4-4-4-2-2-2-2---------4-4-4-4---|


Chorus:
E|---------------------------------------|
B|---------------------------------------|
G|---------------------------------------|
D|-4-4-4-4-3-3-3-3-6---6---6---6---6-----|
A|-4-4-4-4-3-3-3-3-6---6---6---6---6-----|
E|-2-2-2-2-1-1-1-1-4---4---4---4---4-----|

E|-------------------------------------------|
B|-------------------------------------------|
G|-------------------------------------------|
D|-6-5-4-4-4-4-3-3-3-3-6---6---6---6---6-----|
A|-6-5-4-4-4-4-3-3-3-3-6---6---6---6---6-----|
E|-4-3-2-2-2-2-1-1-1-1-4---4---4---4---4-----|

End of chorus



E|-----|-----------------------------------|
B|-----|-----------------------------------|
G|-----|-------------------6--6------------|
D|-6-5-|-6--6--4--4--3--3--6--6------------|x2
A|-6-5-|-6--6--4--4--3--3--4--4------------|
E|-4-3-|-4--4--2--2--1--1------------------|


Verse 2:
E|---------------------------------------|
B|---------------------------------------|
G|-----------------66666666--------------|
D|--6666666444444446666666666666---6--6--|
A|--6666666444444444444444466666---6--6--|
E|--444444422222222--------44444---4--4--|
    mmmmmmmmmmmmmmmmmmmmmmmmmmmm
[ Tab from: http://www.guitartabs.cc/tabs/s/sum_41/machine_gun_tab_ver_5.html ]
E|-------------------------------------|
B|-------------------------------------|
G|-----------------66666666------------|
D|--6666666444444446666666666666666----|
A|--6666666444444444444444466666666----|
E|--444444422222222--------44444444----|
    mmmmmmmmmmmmmmm





Bridge:
E|---------------------------------------------------|
B|---------------------------------------------------|
G|-6-6-6-6-6-6-6-6-8-8-8-8-8-8-8-8-------------------|
D|-6-6-6-6-6-6-6-6-8-8-8-8-8-8-8-8---6-6-6-6-6-6-6---|
A|-4-4-4-4-4-4-4-4-6-6-6-6-6-6-6-6---6-6-6-6-6-6-6---|
E|-----------------------------------4-4-4-4-4-4-4---|

E|-----------------------------------------------------|
B|-----------------------------------------------------|
G|-6-6-6-6-6-6-6-6-8-8-8-8-8-8-8-8---------------------|
D|-6-6-6-6-6-6-6-6-8-8-8-8-8-8-8-8-8-8-8-8-6-6-6-6-4---|
A|-4-4-4-4-4-4-4-4-6-6-6-6-6-6-6-6-8-8-8-8-6-6-6-6-4---|
E|---------------------------------6-6-6-6-4-4-4-4-2---|


Solo:
E|--9-8-9-8-9-11-9-------------8-----9-8-9-8-9-11-13-11-9-8-9-8-------------|
B|-----------------9---7-9-7-9---9-7----------------------------11--9-7-9-7-|
G|--------------------------------------------------------------------------|
D|--------------------------------------------------------------------------|
A|--------------------------------------------------------------------------|
E|--------------------------------------------------------------------------|

E|--8h9p8-------------8h9p8-------------8h9p8-----11-13-11-9-8--------------|
B|--------9---9-7-9-7-------9---9-7-9-7-------9----------------11-9\--------|
G|--------------------------------------------------------------------------|
D|--------------------------------------------------------------------------|
A|--------------------------------------------------------------------------|
E|--------------------------------------------------------------------------|






Guitar 1:
E|-----------------------------------|
B|-----------------------------------|
G|-----------------------------------|
D|-----------------------------------|
A|-----------------------------------|
E|--2-1-2-1-2-4-2-1-2-1-2-1-2-4-2-1--|x5


After 1 time guitar 2 joins:
E|-------------------------------------|
B|-------------------------------------|
G|-------------------------------------|
D|--4-3-4-3-4-6-4-3-4-3-4-3-4-6-4-3----|x4
A|-------------------------------------|
E|-------------------------------------|

E|------------------------------------|
B|------------------------------------|
G|--------------------6--6------------|
D|--6--6--4--4--3--3--6--6------------|x4
A|--6--6--4--4--3--3--4--4------------|
E|--4--4--2--2--1--1------------------|


Ending:
E|--------------------------------------------|
B|--------------------------------------------|
G|--------------------------------------------|
D|--66666---66666---666666666666666666--------|
A|--66666---66666---666666666666666666--------|
E|--44444---44444---444444444444444444...-----|
Comments