Sum 41 - Machine Gun Chords & Tabs

 

Machine Gun Chords & Tabs

Sum 41 Chords & Tabs

Version: 4 Type: Tab 0 ratings
1 star 2 stars 3 stars 4 stars 5 stars
comments

Machine Gun Tab

Sum 41 - Half Hour of Power - 02 - Machine Gun

Standard Tuning
. = palm mute

i didnt put in the strumming for this song because a lot
of people play it different, so here are the chords.
|---------------------------
|---------------------------
|-----------6--(x3)-666-----
|--6--4--3--6-------666--6--
|--6--4--3--4-------444--6--
|--4--2--1---------------4--
                    ...

|-------------------------------------------
|-------------------------------------------
|------------------6------------------6-----
|--6---6-6---6--4--6--6---6-6---6--4--6--6--
|--6---6-6---6--4--4--6---6-6---6--4--4--6--
|--4---4-4---4--2-----4---4-4---4--2-----4--
   .         .  .  .  .         .  .  .  
"and im up and i dont know why..."

|-----------------
|-----------------
|--------6-----(x2)
|--6--4--6--6-----
|--6--4--4--6-----
|--4--2-----4-----
"the sun hits like a punch in the face..."

|--------------------------------------
|--------------------------------------
|--------6------------------6----------
|--4--3--6--6----6-5--4--3--6--6---6-5-
|--4--3--4--6----6-5--4--3--4--6---6-5-
|--2--1-----4----4-3--2--1-----4---4-3-
"i cant keep this up..."

|------------------
|------------------
|-----------6--(x2)
|--6--4--3--6------
|--6--4--3--4------
|--4--2--1---------

|---------------------------------
|---------------------------------
|--------6------------------6-----
|--6--4--6--6---6-6---6--4--6--6--
|--6--4--4--6---6-6---6--4--4--6--
|--4--2-----4---4-4---4--2-----4--
   .  .  .  .         .  .  .  
"eating cold pizza..."

|---------------------------------
|---------------------------------
|--------6------------------6-----
|--4--3--6--6----6-5--4--3--6--6--
|--4--3--4--6----6-5--4--3--4--6--
|--2--1-----4----4-3--2--1-----4--
"i cant keep this up..."
[ Tab from: http://www.guitartabs.cc/tabs/s/sum_41/machine_gun_tab_ver_4.html ]
|--------------------------
|--------------------------
|--6--8-------6--8---------
|--6--8---6---6--8--8--6--4
|--4--6---6---4--6--8--6--4
|---------4---------6--4--2
"'Cause you can count me out..."

Solo (Guitar 1)
|--------------------------------------------------------------------
|--10/14-13-14-13-14-16-14----------------13----10/14-13-14-13-14-13-
|--------------------------13-11-13-11-13----13----------------------
|--------------------------------------------------------------------
|--------------------------------------------------------------------
|--------------------------------------------------------------------

|--------13----------------------------------------------------------
|--14-16----16-14-13-14-13-11-------------14/13----------------14/13-
|-----------------------------13-11-13-11-------13-13-11-13-11-------
|--------------------------------------------------------------------
|--------------------------------------------------------------------
|--------------------------------------------------------------------

|--------------13/11----11-13-11-------------
|--13-12-13-12-------13----------14-13-11----
|-----------------------------------------13-
|--------------------------------------------
|--------------------------------------------
|--------------------------------------------

(Guitar 2)
|------------------
|------------------
|-----------6--(x4)
|--6--4--3--6------
|--6--4--3--4------
|--4--2--1---------

(bass plays for a bit)
"na, na na na na..."

|-------------------
|-------------------
|-------------------
|-------------------
|-------------------
|--2-1-2-1-2-4-2-1--
                 "...freak out!"

|-----------------------
|-----------------------
|-----------6--(x4)-----
|--6--4--3--6--------6--
|--6--4--3--4--------6--
|--4--2--1-----------4--

=-=-=-=-=-=-=-=-=-=-=-=-=-=-=-=-=-=-=-=-=-=-=-=-=-=-=-=-=-=-=-=-=-=-=-
Comments