Sum 41 - Machine Gun Chords & Tabs

 

Machine Gun Chords & Tabs

Sum 41 Chords & Tabs

Version: 2 Type: Tab 0 ratings
1 star 2 stars 3 stars 4 stars 5 stars
comments

Machine Gun Tab

   
Sum 41
"Machine Gun"
Transcribed by George Kemper (onehitwonderland@hotmail.com)

Chords Used

Bb5 [688xxx]
C5  [x355xx]
Db5 [x466xx]
Eb5 [x688xx]
F5  [133xxx]
F#5 [244xxx]
G#5 [466xxx]


G#5 - F#5 - F5 - Db5
G#5 - F#5 - F5 - Db5
G#5 - F#5 - F5 - Db5

[G#5]Well I'm up and I [F#5]don't know why
But I [Db5]guess that's all that [G#5]counts
Lookin 'round as I'm [F#5]holding my head
And I'm [Db5]in somebody's [G#5]house
The sun it hits me like a [F#5]punch in the face
With a [Db5]headache I can't ig[G#5]nore
Seems almost [F#5]every weekend my [Db5]bed is someone's [G#5]floor

[Db5]I can't [C5]keep this [G#5]up
[Db5]I have [C5]had e[G#5]nough

G#5/F#5

G#5 - F#5 - F5 - Db5
G#5 - F#5 - F5 - Db5

[G#5]Eating cold pizza on the [F#5]side of the curb
To cover [Db5]up my morning breath of [G#5]gin
Something doesn't seem to [F#5]sit with me right
It's going [Db5]out the way it went [G#5]in

[Db5]I can't [C5]keep this [G#5]up
[Db5]I have [C5]had e[G#5]nough
[Db5]You can't count me [Eb5]out
I'm on to [NC]you[G#5]
[Db5]You can't count [Eb5]me out I'm tired of
[Bb5]Leaving my em[G#5]barassments [NC]behind

(Rhythm Behind Solo: G#5 - F#5 - F5 - Db5)

|-9p8-9p8-9h11-9------------------9p8-9p8-9p8-9-11-13-11-9-11-9/8----------------|
|----------------9p8-9p8-9h11-9p8------------------------------------------------|
|--------------------------------------------------------------------------------|
|--------------------------------------------------------------------------------|
|--------------------------------------------------------------------------------|
|--------------------------------------------------------------------------------|
[ Tab from: http://www.guitartabs.cc/tabs/s/sum_41/machine_gun_tab_ver_2.html ]
|-------------------------------------------11-13-11-9-8-9-----------------------|
|-9p8-9p8-13b-9-9p8-9p8-13b-9-9p8-9p8-13b-9----------------9/0-------------------|
|--------------------------------------------------------------------------------|
|--------------------------------------------------------------------------------|
|--------------------------------------------------------------------------------|
|--------------------------------------------------------------------------------|

Nah nah nah nah nah
Nah nah nah nah nah nah nah nah nah nah
Nah nah nah
Nah nah nah nah nah
Nah nah nah nah nah nah nah nah nah
Nah nah nah
Nah nah nah nah nah
Nah nah nah nah nah nah nah nah nah
Nah nah nah
Hueh!

|--------------------------------------------------------------------------------|
|--------------------------------------------------------------------------------|
|--------------------------------------------------------------------------------|
|-4p3-4p3-4h6-4p3-4p3-4p3-4h6-4p3-4p3-4p3-4h6-4p3-4p3-4p3-4h6-4p3-4p3-4p3-4h6-4p3|
|--------------------------------------------------------------------------------|
|--------------------------------------------------------------------------------|

|--------------------------------------------------------------------------------|
|--------------------------------------------------------------------------------|
|--------------------------------------------------------------------------------|
|-4p3-4p3-4h6-4p3-4p3-4p3-4h6-4p3-4p3-4p3-4h6-4p3-4p3-4p3-4h6-4p3-4p3-4p3-4h6-4p3|
|--------------------------------------------------------------------------------|
|--------------------------------------------------------------------------------|
					    Waaaaaaaaaaaaaaaaaaaaaaaaaaaaaaaaah! Freak out!

G#5 - F#5 - F5 - Db5
G#5 - F#5 - F5 - Db5
G#5 - F#5 - F5 - Db5
G#5 - F#5 - F5 - Db5

G#5

Comments