Sum 41 - Machine Gun Chords & Tabs

 

Machine Gun Chords & Tabs

Sum 41 Chords & Tabs

Version: 1 Type: Tab 0 ratings
1 star 2 stars 3 stars 4 stars 5 stars
comments

Machine Gun Tab

#----------------------------------PLEASE NOTE---------------------------------#
#This file is the author's own work and represents their interpretation of the #
#song. You may only use this file for private study, scholarship, or research. #
#------------------------------------------------------------------------------#
Artist: Sum 41
Song: Machine Gun
Album: Half Hour Of Power
Tabbed By: Nojustno


Standard tuning (EADGBe)
I'm sure you can figure out the rhythm on your own.


/ = slidex = muted note     pm = palm muted chord


Intro:

-----------------------------------------
-----------------------------------------
--------------------------6--------------
---6-------4-------3------6--------------
---6-------4-------3------4--------------
---4-------2-------1---------------------


Verses:

-----------------------------------------
-----------------------------------------
------------------6----------------------
---6-------4------6-------6--6-6---------
---6-------4------4-------6--6-6---------
---4-------2--------------4--4-4---------
pm|.........................|

*NOTE* Second section of first verse is not palm muted.


Chorus:

-----------------------------------------
-----------------------------------------
-----------------------------------------
---4------3------6-----------------------
---4------3------6-----------------------
---2------1------4-----------------------

*Note* After first chorus play intro again then the second verse, after second chorus go to bridge.


Bridge ("Cause you can count me out..."):

----------------------------------------------------
----------------------------------------------------
---6-----8--------------6-----8---------------------
---6-----8------x-6-----6-----8----8--x--6--x--4----
---4-----6------x-6-----4-----6----8--x--6--x--4----
----------------x-4----------------6--x--4--x--2----


Solo:
[ Tab from: http://www.guitartabs.cc/tabs/s/sum_41/machine_gun_tab.html ]
--------------------------11------------------------------------------------------
---10/14--13--14--13--14------14------------------13--14--13--11------------------
----------------------------------13--11--13--11----------------------------------
----------------------------------------------------------------------------------
----------------------------------------------------------------------------------
----------------------------------------------------------------------------------


--------------------------11------11--13--11--------------------------------------
---10/14--13--14--13--14------14--------------14--13--11--------------------------
----------------------------------------------------------------------------------
----------------------------------------------------------------------------------
----------------------------------------------------------------------------------
----------------------------------------------------------------------------------


----------------------------------------------------------------------------------
-------------------13--14--13--11------------------13--14--13--11-----------------
---13--11--13--11------------------13--11--13--11---------------------------------
----------------------------------------------------------------------------------
----------------------------------------------------------------------------------
----------------------------------------------------------------------------------


-------------------------------11--13--11-----------------------------------------
-------------------13--14--13--------------14--13--11-----------------------------
---13--11--13--11--------------------------------------13-------------------------
----------------------------------------------------------------------------------
----------------------------------------------------------------------------------
----------------------------------------------------------------------------------


*Next Deryck sings "NA NA NA NA NA....." a lot

Then he makes a weird sound and goes:

-----------------------------------------
-----------------------------------------
-----------------------------------------
-----------------------------------------
-----------------------------------------
---2--1--2--1--2--4--2--1----------------


Once Dave goes, "Whaa freak out!!!" Play Intro again 4 times.  Outro is just the first chord
(G Sharp) of intro played over and over.

*~~~~*~~~~*
Comments