Sum 41 - Machine Gun Solo Chords & Tabs

 

Machine Gun Solo Chords & Tabs

Sum 41 Chords & Tabs

Version: 1 Type: Tab 0 ratings
1 star 2 stars 3 stars 4 stars 5 stars
comments

Machine Gun Solo Tab

Sum 41
Machine Gun solo:
tabbed by: thedirtyguy

e----------------------------------------------------------------------
B--10/14-13-14-13-14-16-14----------------13-----10/14-13-14-13-14-13--
G--------------------------13-11-13-11-13----13------------------------
D----------------------------------------------------------------------
A----------------------------------------------------------------------
E----------------------------------------------------------------------
[ Tab from: http://www.guitartabs.cc/tabs/s/sum_41/machine_gun_solo_tab.html ]
e--------13------------------------------------------------------------
B--14-16----16-14-13-14-13-11-------------14/13----------------14/13---
G-----------------------------13-11-13-11-------13-13-11-13-11---------
D----------------------------------------------------------------------
A----------------------------------------------------------------------
E----------------------------------------------------------------------

e-------------13/11----11-13-11----------------------------------------
B-13-12-13-12-------13----------14-13-11-------------------------------
G----------------------------------------13/----------------------------
D----------------------------------------------------------------------
A----------------------------------------------------------------------
E----------------------------------------------------------------------

Enjoy the punk-metal sound of sum 41. comments: gregm@gmx.net
Comments