Sum 41 - In Too Deep Whole Song Chords & Tabs

 

In Too Deep Whole Song Chords & Tabs

Sum 41 Chords & Tabs

Version: 1 Type: Tab 0 ratings
1 star 2 stars 3 stars 4 stars 5 stars
comments

In Too Deep Whole Song Tab

   
This song is pretty hard to play on guitar I must admit

Any questions or comments e-mail me 

at spike1007@hotmail.com

Intro 5x (one of the guitars, not sure of the other one)
E|----------------3--|---------------------|
B|------------4------|---------------------|
G|----3-3-3-3---3----|--3-3-3-3-------3----|
D|-------------------|----------6-5-6------|
A|--6----------------|---------------------|
E|-------------------|---------------------|
pm______________________________________

Play the top strings to get the high pitches
E|--7--7--7---5--5--5---7--7--7--------------------|
B|--9--9--9---5--5--5---9--9--9--------------------|
G|--9--9--9---6--6--6---9--9--9--------------------|
D|--9--9--9---7--7--7---9--9--9---7-7-7-7-7-7-7-7--|
A|--7--7--7---7--7--7---7--7--7---7-7-7-7-7-7-7-7--|
E|--7--7--7---5--5--5---7--7--7---5-5-5-5-5-5-5-5--|
                          Build up________________
Chorus - play 2x                                Only 1st time
E|--------------------------------------------|----------------|
B|--------------------------------------------|----------------|
G|-------2-2-2-2-------2-2-2-2-------2-2-2-2--|-------2-2-2-2--|
D|--2-2--2-2-2-2--2-2--2-2-2-2--2-2--2-2-2-2--|--2-2--2-2-2-2--|
A|--2-2--0-0-0-0--2-2--0-0-0-0--2-2--0-0-0-0--|--2-2--0-0-0-0--|
E|--0-0-----------0-0-----------0-0-----------|--0-0-----------|

In-between part play 1x
E|-------------------------------------|
B|-------------------------------------|
G|--9-9-9-9--7-7-7-7-------------------|
D|--9-9-9-9--7-7-7-7--7-7-7-7-7-7-7-7--|
A|--7-7-7-7--5-5-5-5--7-7-7-7-7-7-7-7--|
E|--------------------5-5-5-5-5-5-5-5--|

Fun part - play 1x
E|--------------------------------------|
B|--------------------------------------|
G|-------9------------------9-----------|
D|--2-2--9--7-7-6-7----2-2--9--7-7-6-7--|
A|--2-2--7--7-7-6-7----2-2--7--7-7-6-7--|
E|--0-0-----5-5-4-5----0-0-----5-5-4-5--|

Then - play 1x
E|----------------------------------------|
B|----------------------------------------|
G|-------13------------------13-----------|
D|--2-2--13--7-7-6-7----2-2--13--7-7-6-7--|
A|--2-2--11--7-7-6-7----2-2--11--7-7-6-7--|
E|--0-0------5-5-4-5----0-0------5-5-4-5--|

You know this part ;) play 2x
E|---------------------------------------------|
B|---------------------------------------------|
G|---------------------------------------------|
D|--2-2----6--7-7---7--2-2----6--7-7---6--7-7--|
A|--2-2----6--7-7---7--2-2----6--7-7---6--7-7--|
E|--0-0----4--5-5---5--0-0----4--5-5---4--5-5--|

Repeat 2x
E|-----------------------------------|
B|-----------------------------------|
G|------------------2-2-2-2-2-2-2-2--|
D|-2-2-2-2-2-2-2-2--2-2-2-2-2-2-2-2--|
A|-2—2-2-2-2-2-2-2--0-0-0-0-0-0-0-0--|
E|-0-0-0-0-0-0-0-0-------------------|
Pm________________    _____________

E|-----------------------------------|
B|-----------------------------------|
G|------------------2-2-2-2-2-2-2-2--|
D|-2-2-2-2-2-2-2-2--2-2-2-2-2-2-2-2--|
A|-2—2-2-2-2-2-2-2--0-0-0-0-0-0-0-0--|
E|-0-0-0-0-0-0-0-0-------------------|
   Pm_____________ build up________

Chorus - play 2x                                Only 1st time
E|--------------------------------------------|----------------|
B|--------------------------------------------|----------------|
G|-------2-2-2-2-------2-2-2-2-------2-2-2-2--|-------2-2-2-2--|
D|--2-2--2-2-2-2--2-2--2-2-2-2--2-2--2-2-2-2--|--2-2--2-2-2-2--|
A|--2-2--0-0-0-0--2-2--0-0-0-0--2-2--0-0-0-0--|--2-2--0-0-0-0--|
E|--0-0-----------0-0-----------0-0-----------|--0-0-----------|

Pre pre solo - play 1x
E|-------------------------------------|
B|-------------------------------------|
G|--9-9-9-9--7-7-7-7-------------------|
D|--9-9-9-9--7-7-7-7--7-7-7-7-7-7-7-7--|
A|--7-7-7-7--5-5-5-5--7-7-7-7-7-7-7-7--|
E|--------------------5-5-5-5-5-5-5-5--|
[ Tab from: http://www.guitartabs.cc/tabs/s/sum_41/in_too_deep_whole_song_tab.html ]
2nd time
E|--------------------------------------|
B|--------------------------------------|
G|--9-9-9-9--7-7-7-7-----------9-9-9-9--|
D|--9-9-9-9--7-7-7-7--7-7-7-7--9-9-9-9--|
A|--7-7-7-7--5-5-5-5--7-7-7-7--7-7-7-7--|
E|--------------------5-5-5-5-----------|


Pre solo 1x (easier way to play)
E|--------------------------|
B|--------------------------|
G|--------------------------|
D|--------------------------|
A|----7------7----7------7--|
E|--0----0-0----0----0-0----|
Solo
E|-5p4p0-5p4p0-7p4p0-7p4p0-4p2p0-4p2p0-5-|
B|---------------------------------------|
G|---------------------------------------|
D|---------------------------------------|
A|---------------------------------------|
E|---------------------------------------|

Solo continued                     2nd time
E|-0-4-0-5-0-7-0-5-0-4-0-2-0-5-0--|12^(14)--|
B|--------------------------------|---------|
G|--------------------------------|---------|
D|--------------------------------|---------|
A|--------------------------------|---------|
E|--------------------------------|---------|

Post Solo
E|----------------------|
B|----------------------|
G|------------2-2--4-4--|
D|--2-2--4-4--2-2--4-4--|
A|--2-2--4-4--0-0--2-2--|
E|--0-0--2-2------------|

First guitar not in brackets, 2nd guitar in brackets ()
Play – 2x
E|--------------------------------------------|
B|--------------------------------------------|
G|-------(9)-------(9)--2-2—-(9)--4-4—-(9)----|
D|--2-2—-(9)--4-4—-(7)--2-2—-(9)--4-4—-(9)----|
A|--2-2—-(7)--4-4—-(7)--0-0—-(7)--2-2—-(7)----|
E|--0-0-------2-2-----------------------------|

Continued...
First guitar not in brackets, 2nd guitar in brackets ()
Play – 2x                    only play 1st time
E|------------------------|-----------------------|
B|------------------------|-----------------------|
G|-------(13)-------(13)--|-2-2—-(13)--4-4—-(13)--|
D|--2-2—-(13)--4-4—-(13)--|-2-2—-(13)--4-4—-(13)--|
A|--2-2—-(11)--4-4—-(11)--|-0-0—-(11)--2-2—-(11)--|
E|--0-0--------2-2--------|-----------------------|

Fun part - play 2x
E|--------------------------------------|
B|--------------------------------------|
G|-------9------------------9-----------|
D|--2-2--9--7-7-6-7----2-2--9--7-7-6-7--|
A|--2-2--7--7-7-6-7----2-2--7--7-7-6-7--|
E|--0-0-----5-5-4-5----0-0-----5-5-4-5--|

Then - play 1x         only play 1st time
E|--------------------|--------------------|
B|--------------------|--------------------|
G|-------13-----------|-------13-----------|
D|--2-2--13--7-7-6-7--|--2-2--13--7-7-6-7--|
A|--2-2--11--7-7-6-7--|--2-2--11--7-7-6-7--|
E|--0-0------5-5-4-5--|--0-0------5-5-4-5--|

Play 1x
E|-------------------------------------|
B|-------------------------------------|
G|--9-9-9-9--7-7-7-7-------------------|
D|--9-9-9-9--7-7-7-7--7-7-7-7-7-7-7-7--|
A|--7-7-7-7--5-5-5-5--7-7-7-7-7-7-7-7--|
E|--------------------5-5-5-5-5-5-5-5--|

Play 1x
E|--------------------------------------|
B|--------------------------------------|
G|--9-9-9-9--7-7-7-7-----------5-5-5-5--|
D|--9-9-9-9--7-7-7-7--7-7-7-7--5-5-5-5--|
A|--7-7-7-7--5-5-5-5--7-7-7-7--3-3-3-3--|
E|--------------------5-5-5-5-----------|

Play 1x
E|-------------------------------------|
B|-------------------------------------|
G|--9-9-9-9--7-7-7-7-------------------|
D|--9-9-9-9--7-7-7-7--7-7-7-7-7-7-7-7--|
A|--7-7-7-7--5-5-5-5--7-7-7-7-7-7-7-7--|
E|--------------------5-5-5-5-5-5-5-5--|

Play till the guitar cuts out
E|--------------------------------------|
B|--------------------------------------|
G|--9-9-9-9--7-7-7-7-----------5-5-5-5--|
D|--9-9-9-9--7-7-7-7--7-7-7-7--5-5-5-5--|
A|--7-7-7-7--5-5-5-5--7-7-7-7--3-3-3-3--|
E|--------------------5-5-5-5-----------|

Outro (plays over the other guitar for a while)
E----------------------------------------------------|
B--9-10-9-10-1210-9-10-9-10-9-10-9--9-9--9--------9--|
G--9-9--9-9--9-9--9-9--9-9--9-9--9-11-9-11-end-on-9--|
D----------------------------------------------------|
E----------------------------------------------------|

Spike ;)
Comments