Sum 41 - In Too Deep Chords & Tabs

 

In Too Deep Chords & Tabs

Sum 41 Chords & Tabs

Version: 9 Type: Tab 0 ratings
1 star 2 stars 3 stars 4 stars 5 stars
comments

In Too Deep Tab

   
Sum 41
In Too Deep
Tabbed by: mjwk_1986@yahoo.com

Intro/Verse

E------------------------------------
B------------------------------------
G------------------------------------
D-----------6-7-9-7----------------6-
A---7-----7----------0-0-0-0-6-7-9---
E-0-----0----------------------------

E----------5--5-5--------------------------------
B-9--9-9---5--5-5--9--9-9------------------------
G-9--9-9---6--6-6--9--9-9--2-2-2-2-2-2-2-2-2---2-
D-9--9-9---7--7-7--9--9-9--2-2-2-2-2-2-2-2-2---2-
A--------------------------0-0-0-0-0-0-0-0-0-0-0-
E--------------------------------------------0---

Chorus

E---------------   -----------------
B---------------   -----------------
G-------2-2-2---   -9-9-9-9-7-7-7---
D-2-2-0-2-2-2-0-X7 -9-9-9-9-7-7-7---
A-2-2-0-0-0-0-0-   -7-7-7-7-5-5-5-0-
E-0-0-----------   -7-7-7-7-------0-

Post-Chorus

E-----------------
B-----------------
G-----9-----------
D-----------------
A-----7---7-7-7-7-
E-0-0---0-5-5-4-5-

2nd Verse

E----------------------------------
B----------------------------------
G----------------------------------
D----------------------------------
A-2---6-7-7---7-2-2---6-7-7-6-7--7-
E-0---4-5-5---5-0-0---4-5-5-4-5--5-

2nd Pre-Chorus
[ Tab from: http://www.guitartabs.cc/tabs/s/sum_41/in_too_deep_tab_ver_9.html ]
E-----------------
B-----------------
G-----------------
D-2---------------
A-2-2-2-2-2-2-2-2-
E-0-0-0-0-0-0-0-0-
P.M...............

Solo

E-5p4p0-5p4p0-7p5p0-7p5p0-----------------------------------------------
B-------------------------4-5-4-5/7-9p0-10p0-12p0-10p0-9p0-7p0-9p0-10p0-
G-----------------------------------------------------------------------
D-----------------------------------------------------------------------
A-----------------------------------------------------------------------
E-----------------------------------------------------------------------
                                                               
E-5p4p0-5p4p0-7p5p0-7p5p0-------------------------------------------12--
B-------------------------4-5-4-5/7--0-9p0-10p0-12p0-10p0-9p0-7p0-------
G-----------------------------------------------------------------------
D-----------------------------------------------------------------------
A-----------------------------------------------------------------------
E-----------------------------------------------------------------------

Bridge

E--------------------
B--------------------
G--------------------
D--------------------
A-2-2--4-4--7-7--9-9-
E-0-0--2-2--5-5--7-7-

Outro

E------------------------------------------
B-9-10-9-10-12-10-9-10-9-10-9-10-9---------
G-9--9-9--9--9--9-9--9-9--9-9--9-9-11-9-11-
D----------------------------------11-9-11-
A------------------------------------------
E------------------------------------------
Comments