Sum 41 - In Too Deep Chords & Tabs

 

In Too Deep Chords & Tabs

Sum 41 Chords & Tabs

Version: 8 Type: Tab 0 ratings
1 star 2 stars 3 stars 4 stars 5 stars
comments

In Too Deep Tab

   
in too deep
by sum 41
track: #7 on all killer no filler
tabbed by:mat mcmanus
email:munky0911@aol.com

This is an awesome song, i urge everyone to go out and buy the 2
sum 41 cd's

p.m.=palm mute
h   =hammer on
p   =pull off

intro:
e|--------------------------------------------------|
B|--------------------2-----------------------------|
G|--4---4--4--4--4--2--4---4--4--4--4--4--2--1------|
D|---------------------------------------------4--2-|
A|--------------------------------------------------|
E|--------------------------------------------------|
 p.m................................................


e|---4---4---4---5---5---4-|
B|---5---5---5---5---5---5-|
G|---4---4---4---6---6---4-|
D|-------------------------|
A|-------------------------|
E|-------------------------|
  "may-be we're just trying to hard.."

chorus:
e|--------------------|-------------|
B|--------------------|-------------|
G|--------2-2-2-2-2---|----7--------|
D|-2--2-2-2-2-2-2-2---|-2--7--7-----|
A|-2--2-2-0-0-0-0-0---|-2--5--7-----|
E|-0--0-0-------------|-0-----5-----|
 "cause im in 2 deep.." "but instead im goin under, instead...

e|-------------------|
B|-------------------|
G|----------2-2--2---|
D|-2------2-2-2--2---|
A|-2--2h4---0-0--0---|
E|-0------------4----|
[ Tab from: http://www.guitartabs.cc/tabs/s/sum_41/in_too_deep_tab_ver_8.html ]
e|---------------------------------------|
B|---------------------------------------|
G|--------2-2----------------------------|
D|-2-2----2-2----------------------------|
A|-2-2----0-0----2--2--6--7--7--6--7--7--|
E|-0-0--4-----4--0--0--4--5--5--4--5--5--|

solo:
e|-5p4p0-5p4p0-7p4p0-7p4p0-4p2p0-4p2p0-5-|
B|---------------------------------------|
G|---------------------------------------|
D|---------------------------------------|
A|---------------------------------------|
E|---------------------------------------|

solo cont:
e|-0-4-0-5-0-7-0-5-0-4-0-2-0-5-0--|12^(14)--|
B|--------------------------------|---------|
G|--------------------------------|---------|
D|--------------------------------|---------|
A|--------------------------------|---------|
E|--------------------------------|---------|

e|---------------------|
B|---------------------|
G|---------------------|
D|--2-2--4-4--7-7--9-9-|
A|--2-2--4-4--7-7--9-9-|
E|--0-0--2-2--5-5--7-7-|

e|-------------------------------------|------------------
B|-------------------------------------|------------------
G|-----------7-7-7-7-----------5-5-5-5-|---------7-7-7-7--
D|--2-2-2-2--7-7-7-7--7-7-7-7--5-5-5-5-|-2-2-2-2-7-7-7-7--
A|--2-2-2-2--5-5-5-5--7-7-7-7--3-3-3-3-|-2-2-2-2-5-5-5-5-
E|--0-0-0-0-----------5-5-5-5----------|-0-0-0-0---------

D|7-7-7-7-7-7-7-7-|
A|7-7-7-7-7-7-7-7-|
e|5-5-5-5-5-5-5-5-|

outro:
e|0--0-0--0--0--0--0-0-0--0-0--0-0-0-0-0-|
B|9-10-9-10-12-10-9-10-9-10-9-10-7-5-5h7-|
G|---------------------------------------|
D|---------------------------------------|
A|---------------------------------------|
E|---------------------------------------|

repeat and fade

Comments