Sum 41 - In Too Deep Chords & Tabs

 

In Too Deep Chords & Tabs

Sum 41 Chords & Tabs

Version: 6 Type: Tab 0 ratings
1 star 2 stars 3 stars 4 stars 5 stars
comments

In Too Deep Tab

#----------------------------------PLEASE NOTE--------------------------------#
#This file is the author's own work and represents their interpretation of the#
#song. You may only use this file for private study, scholarship, or research.#
#-----------------------------------------------------------------------------#
#-- File created with Instab - http://www.pconline.com/~smcarey/instab.html --#
#-----------------------------------------------------------------------------#

Author/Artist: sum 41
Title: In too Deep
Album: All Killer no Filler
Transcribed by: Will Petrik
----------4---------------------4-------------------4--4--4-------------------
------5---------------------5-----------------------5--5--5--5----------------
-4444---4---4444-2-1-2-4444---4---4444-2-1----------4--4--4--6----------------
-------------------------------------------4-2---------------7----------------
------------------------------------------------------------------------------
------------------------------------------------------------------------------
                                          repeat                              
[ Tab from: http://www.guitartabs.cc/tabs/s/sum_41/in_too_deep_tab_ver_6.html ]
------------------------------------------------------------------------------
---------------------------------------11-------------------------------------
----------22----22--99-77------------9----------------------------------------
-7777--22-22-22-22--99-77-77------22-9-9--7-6-7---7-6-4-6-2-------------------
-7777--22-00-22-00--77-55-77------22-7----7-6-7---7-6-4-6-2-------------------
-5555--00----00-----------55------00------5-4-5---5-4-2-4-0-------------------
         Chorus    last time     then or         last time                    

------------------------------------------------------------------------------
------------------------------------------------------------------------------
------------------------------------------------------------------------------
-2-2-6-7-7--7-2-2-6-7-7-6-7-7-------------------------------------------------
-2-2-6-7-7--7-2-2-6-7-7-6-7-7-------------------------------------------------
-0-0-4-5-5--5-0-0-4-5-5-4-5-5-------------------------------------------------
                               then chorus            solo?                   

---------------------------------0-0--0-0--0--0--0-0--0-0--0-0--0-0-0-0-------
---------------------------------9-10-9-10-12-10-9-10-9-10-9-10-9-7-5-7-------
--------------------9-7-------------------------------------------------------
-2-2-4-4-7-7-9-9----9-7-7-10--------------------------------------------------
-2-2-4-4-7-7-9-9----7-5-7-10--------------------------------------------------
-0-0-2-2-5-5-7-7--------5-8---------------------------------------------------
                   at the end                                                 

Comments