Sum 41 - In Too Deep Chords & Tabs

 

In Too Deep Chords & Tabs

Sum 41 Chords & Tabs

Version: 5 Type: Tab 4 ratings
1 star 2 stars 3 stars 4 stars 5 stars
comments

In Too Deep Tab

#----------------------------------PLEASE NOTE--------------------------------#
#This file is the author's own work and represents their interpretation of the#
#song. You may only use this file for private study, scholarship, or research.#
#-----------------------------------------------------------------------------#
#-- File created with Instab - http://www.pconline.com/~smcarey/instab.html --#
#-----------------------------------------------------------------------------#

Author/Artist: Sum 41
Title: In To Deep
Album: All Killer No Filler
Transcribed by: huskers420
Email: fto2345821@aol.com

Standard Tuning

Intro, clean tone, gtr.1

-|----------------------------------------------------------------------------
-|----------------------------------------------------------------------------
-|----------------------------------------------------------------------------
-|-------------6-7-9-7---------------6----------------------------------------
-|----7------7---------0-0-0-0-6-7-9------------------------------------------
-|--0------0------------------------------------------------------------------
 pm -      -------     ------------                                           

-|----------------------------------------------------------------------------
-|-------------9---------------------------------9----------------------------
-|---------9---------------------------------9--------------------------------
-|-9-9-9-9---9---9---9-9-9-9-7-6-7-9---9-9-9---9---9---9-9-9-9-7-6------------
-|-----------------------------------------------------------------9-7--------
-|----------------------------------------------------------------------------
 gtr 2 , pm throughout -----------------------------------------------        

-|----------5-5-5-------------------------------------------------------------
-|--9-9-9---5-5-5---9-9-9-----------------------------------------------------
-|--9-9-9---6-6-6---9-9-9---2-2-2-2-2-2-2-2-2-2-------------------------------
-|--9-9-9---7-7-7---9-9-9---2-2-2-2-2-2-2-2-2-2-------------------------------
-|--------------------------0-0-0-0-0-0-0-0-0-0-0-0---------------------------
-|----------------------------------------------0-0---------------------------
 dist. on  verse            pm--------                                        

-|---------------|------------------------------------------------------------
-|---------------|------------------------------------------------------------
-|-------2-2-2---|-9-9-9-9-7-7-7----------------------------------------------
-|-2-2-0-2-2-2-0-|-9-9-9-9-7-7-7----------------------------------------------
-|-2-2-0-0-0-0-0-|-7-7-7-7-5-5-5-0-7-7-7-7-x-x-x-x-x-x-x-0--------------------
-|-0-0-----------|-7-7-7-7-------0-5-5-5-5-x-x-x-x-x-x-x-0--------------------
 chorus 6x                                                                    

-|----------------------------------------------------------------------------
-|----------------------------------------------------------------------------
-|-----/9-----------------/9-----------------/13---------------/13------------
-|-----/x-----------------/x-----------------/x----------------/x-------------
-|-----/7---7-7-7-7-------/7---7-7-7-7-------/11-7-7-7-7-------/11-7-7-6-4----
-|-0-0----0-5-5-4-5---0-0----0-5-5-4-5---0-0-----5-5-4-5---0-0-----5-5-4-2----
  use for chorus after solo                                                   

-|---------------------------------------------|------------------------------
-|---------------------------------------------|------------------------------
-|---------------------------------------------|------------------------------
-|---------------------------------------------|------------------------------
-|-2-2---6-7-7---7-2-2---6-7-7---6-7-7---7-2-2-|------------------------------
-|-0-0---4-5-5---5-0-0---4-5-5---4-5-5---5-0-0-|------------------------------
 2nd verse                 rpt again                                          
[ Tab from: http://www.guitartabs.cc/tabs/s/sum_41/in_too_deep_tab_ver_5.html ]
-|------------------------------------------------------------------------|---
-|------------------------------------------------------------------------|---
-|-------------------2---------------------------------2-2-2-2-2-2-2------|---
-|-2-----------------2-2-2-2-2-2-2-2---2---------------2-2-2-2-2-2-2------|---
-|-2-2-2-2-2-2-2-2-2-0-0-0-0-0-0-0-0-0-2-2-2-2-2-2-2-0-0-0-0-0-0-0-0------|---
-|-0-0-0-0-0-0-0-0-0-----------------0-0-0-0-0-0-0-0-0---------------0-0--|---
 pm  --------------    -------------     ------------  ---  back to chorus    

-|-----------------------------------------------------|----------------------
-|-----------------------------------------------------|----------------------
-|---------9-------------9-----------9-----------------|----------------------
-|---------x-------------x-----------x-----------------|----------------------
-|---------7-------------7-----------7---0-x-x-x-x-x-x-|----------------------
-|-0-0-0-0-----0-0-0-0-0-----0-0-0-0---0-0-x-x-x-x-x-x-|----------------------
 pre-solo  gtr. 2                                                             

-|-5h4p0-5h4p0-7h5p0-7h5p0--------------------------------------------------|-
-|-------------------------4h5p4h5/7-0-9p0-10p0-12p0-10p0-9p0-7p0-9p0-10p0--|-
-|--------------------------------------------------------------------------|-
-|--------------------------------------------------------------------------|-
-|--------------------------------------------------------------------------|-
-|--------------------------------------------------------------------------|-
 solo gtr.1                                                                   

-|-5h4p0-5h4p0-7h5p0-7h5p0----------------------------------------12b-|-------
-|-------------------------4h5p4h5/7-0-9p0-10p0-12p0-10p0-9p0-7p0-----|-------
-|--------------------------------------------------------------------|-------
-|--------------------------------------------------------------------|-------
-|--------------------------------------------------------------------|-------
-|--------------------------------------------------------------------|-------
                                                                              

-|-------------------------------------------------|--------------------------
-|-------------------------------------------------|--------------------------
-|-------------------------------------------------|--------------------------
-|-------------------------7-7-7-7-7---------------|--------------------------
-|-2-2-2-2-2---4-4-4-4-4---5-5-5-5-5---7-7-7-7-7-7-|--------------------------
-|-0-0-0-0-0---2-2-2-2-2---------------5-5-5-5-5-4-|--------------------------
 gt2 played under solo                                                        

-|-----------------------|------------------------|---------------------------
-|-----------------------|------------------------|---------------------------
-|-----------------------|-8h9---8h9---8h9---11p9-|-11h13-11h13---------------
-|-----------------------|-x-x---x-x---x-x---x--x-|-x---x-x---x---------------
-|-2-2---4-4---7-7---9-9-|-6h7---6h7---6h7---9-p7-|-9-h11-9-h11---------------
-|-0-0---2-2---5-5---7-7-|------------------------|---------------------------
 bridge after solo           repeat 2x           then       repeat 3x         

-|----------------------------------------------------------------------------
-|----------------------------------------------------------------------------
-|----------------------------------------------------------------------------
-|---------7-7-7-----------------9-9-9-9\7-7-7-0------------------------------
-|-2-2-2-2-5-5-5-7-7-7-7-7-7-0-0-7-7-7-7\5-5-5-0-7-7-7-0-10-10-10-10----------
-|-0-0-0-0-------5-5-5-5-5-5-0-0-----------------5-5-5-0-8--8--8--8-----------
 outro guitar 1                                                               

-|-------------------------------------|--------------------------------------
-|-9-10-9-12-10-9-10-9-10-9-10---------|--------------------------------------
-|-9-9--9-9--9--9-9--9-9--9-9--11-9-11-|-9------------------------------------
-|-----------------------------11-9-11-|-9------------------------------------
-|-------------------------------------|--------------------------------------
-|-------------------------------------|--------------------------------------
 guitar 2                                end on this                          

Comments