Sum 41 - In Too Deep Chords & Tabs

 

In Too Deep Chords & Tabs

Sum 41 Chords & Tabs

Version: 4 Type: Tab 5 ratings
1 star 2 stars 3 stars 4 stars 5 stars
comments

In Too Deep Tab

   
Song: In Too Deep
Band: Sum 41
Tabber: Barry French
Email: Azzdurst@hotmail.com

Tuning: Dropped D

Intro and Verse  	                              
E---------------------------------
B---------------------------------
G--------1-22-4-2--------------1--
D---2--------------------1-2-4----
A------------------000-0----------
D-2----2--------------------------

Verse Part 2                                    

E-4--4-4--5--5-5--4--4-4------
B-5--5-5--5--5-5--5--5-5------
G-4--4-4--6--6-6--4--4-4------
D------------------------7777-
A------------------------7777-
D------------------------7777-

pm                       ..

Chorus 

E---------------------------------------------------------------
B---------------------------------------------------------------
G----22----22----22----2-----22----22----22-9999-7777-----------
D-22-22-22-22-22-22-22-2--22-22-22-22-22-22-9999-7777-7777-xxxx-
A-22-00-22-00-22-00-22-0--22-00-22-00-22-00-7777-5555-7777-xxxx-
D-22----22----22----22----22----22----22--------------7777-xxxx-

Post-chorus

E-----------------------------------------
B-----------------------------------------
G-----------------------------------------
D-22---7767-22---7767-22---7767-22---7646-
A-22---7767-22---7767-22---7767-22---7646-
D-22---7767-22---7767-22---7767-22---7646-

Verse

E------------------------------------------------------
B------------------------------------------------------
G------------------------------------------------------
D-22--6-77--7-22--6-77-677-722--6-77--7-22--6-77-677-7-
A-22--6-77--7-22--6-77-677-722--6-77--7-22--6-77-677-7-
D-22--6-77--7-22--6-77-677-722--6-77--7-22--6-77-677-7-

Pre Chorus 
E----------------------
B----------------------
G----------------------
D--2222-7777-2222-7777-
A--2222-7777-2222-7777-
D--2222-7777-2222-7777-
pm ....  ...  ... ..
[ Tab from: http://www.guitartabs.cc/tabs/s/sum_41/in_too_deep_tab_ver_4.html ]
E--------------------------------------------------------------------------------
B--------------------------------------------------------------------------------
G----22----22----22----2-----22----22----22-9999-7777----------9999-7777---------
D-22-22-22-22-22-22-22-2--22-22-22-22-22-22-9999-7777-77777777-9999-7777-77777777
A-22-00-22-00-22-00-22-0--22-00-22-00-22-00-7777-5555-77777777-7777-5555-77777777
D-22----22----22----22----22----22----22--------------77777777-----------77777777

Interlude 
E------------------------
B------------------------
G------------------------
D-22-2-22-2-22-2-22-xxxx-
A-22---22---22---22-xxxx-
D-22---22---22---22-xxxx-

Solo

E-t5p4p0-t5p4p0-t7p5p0-t7p5p0-2s4s2s4s5----------------------12b14r12--------
B-----------------------------4s5s4s5s7-9h10h12h10h9h7h9h10------------------
G----------------------------------------------------------------------------
D----------------------------------------------------------------------------
A----------------------------------------------------------------------------
D----------------------------------------------------------------------------

2nd Interlude  

E-----------------------------------
B-----------------------------------
G-----------------------------------
D-22--44--77--99-----22--44--7-xxxx-
A-22--44--77--99-X5--22--44--7-xxxx-
D-22--44--77--99-----22--44--7-xxxx-

Chorus                 

E-----------------------------------------------------------------------
B-----------------------------------------------------------------------
G-----------------------------------------------------------------------
D-22---7767-22---7767-22---7767-22---7646-22---7767-22---7767-22---7767-
A-22---7767-22---7767-22---7767-22---7646-22---7767-22---7767-22---7767-
D-22---7767-22---7767-22---7767-22---7646-22---7767-22---7767-22---7767-

Pre-outro (instead of going under, 'stead of going under again)

E-----------------------------
B-----------------------------
G-9999-7777-------------------
D-9999-7777-77777777-10101010-
A-7777-5555-77777777-10101010-
D-----------77777777-10101010-


E----------------------------------------------------------------------
B-----------------------9-109-1012109-10-9-109-109---------------------
G----9---------9--------9-9-9-9-9-9-9-9--9-9-9-9-9-11-9-11-end-on-9----
D-22-x-7767-22-x-7767------------------------------9--9-9---------9----
A-22-7-7767-22-7-7767--------------------------------------------------
D-22---7767-22---7767--------------------------------------------------

     play this part x2                 then this to finish
Comments