Sum 41 - In Too Deep Chords & Tabs

 

In Too Deep Chords & Tabs

Sum 41 Chords & Tabs

Version: 3 Type: Tab 0 ratings
1 star 2 stars 3 stars 4 stars 5 stars
comments

In Too Deep Tab

Song:  In Too Deep
Band: Sum 41
Tabber: pecka
Email: sam_pecka@hotmail.com

THIS SONG IS IN DROP D



Intro and Verse:  Guitar 1	    Guitar 2                          Every 2nd Time
e---------------------------------|--------------4--------------------|--------
b---------------------------------|----------5------------------------|--------
g--------1-22-4-2--------------1--|--4-444-4---4---4----444-4---------|--------
d---2--------------------1-2-4----|---------------------------7-6-7-6-|-7-6-4-2
a------------------000-0----------|-----------------------------------|--------
D-2----2--------------------------|-----------------------------------|--------


Verse Part 2:  Guitar 1         Guitar 2                          Every 2nd Time
e-4--4-4--5--5-5--4--4-4------|--------------4-------------------|--------------
b-5--5-5--5--5-5--5--5-5------|----------5-----------------------|--------------
g-4--4-4--6--6-6--4--4-4------|--4-444-4---4---4---444-4---------|--------------
d------------------------7777-|--------------------------7-6-7-6-|-7-6-4-2------
a------------------------7777-|----------------------------------|--------------
D------------------------7777-|----------------------------------|--------------
pm                       ..

Chorus:  Guitars 1 and 2 
e------------------------------------------------------------------------------
b------------------------------------------------------------------------------
g----22----22----22----2-----22----22----22-9999-7777--------------------------
d-22-22-22-22-22-22-22-2--22-22-22-22-22-22-9999-7777-7777-xxxx----------------
a-22-00-22-00-22-00-22-0--22-00-22-00-22-00-7777-5555-7777-xxxx----------------
D-22----22----22----22----22----22----22--------------7777-xxxx----------------


After Chorus Thing:
Guitar 1                          Guitar 2(same as guitar 1 except for tiny bit)
e-----------------------------------------|-------------------------------------
b-----------------------------------------|-------------------------------------
g-----------------------------------------|----9-----------------13-------------
d-22---7767-22---7767-22---7767-22---7646-|-22-x-7767---------22--x-7767--------
a-22---7767-22---7767-22---7767-22---7646-|-22-7-7767-X2-then-22-11-7767-X2-----
D-22---7767-22---7767-22---7767-22---7646-|-22---7767---------22----7767--------


Verse:  You can pick what guitars you want here
e------------------------------------------------------------------------------
b------------------------------------------------------------------------------
g------------------------------------------------------------------------------
d-22--6-77--7-22--6-77-677-722--6-77--7-22--6-77-677-7-------------------------
a-22--6-77--7-22--6-77-677-722--6-77--7-22--6-77-677-7-------------------------
D-22--6-77--7-22--6-77-677-722--6-77--7-22--6-77-677-7-------------------------


Pre Chorus: Again you can pick the guitars you want
e------------------------------------------------------------------------------
b------------------------------------------------------------------------------
g------------------------------------------------------------------------------
d--2222-7777-2222-7777---------------------------------------------------------
a--2222-7777-2222-7777---------------------------------------------------------
D--2222-7777-2222-7777---------------------------------------------------------
pm ....  ...  ... ..

[ Tab from: http://www.guitartabs.cc/tabs/s/sum_41/in_too_deep_tab_ver_3.html ]
Chorus:  Guitars 1 and 2 
e--------------------------------------------------------------------------------
b--------------------------------------------------------------------------------
g----22----22----22----2-----22----22----22-9999-7777----------9999-7777---------
d-22-22-22-22-22-22-22-2--22-22-22-22-22-22-9999-7777-77777777-9999-7777-77777777
a-22-00-22-00-22-00-22-0--22-00-22-00-22-00-7777-5555-77777777-7777-5555-77777777
D-22----22----22----22----22----22----22--------------77777777-----------77777777


Interlude: Guitar 1
e------------------------------------------------------------------------------
b------------------------------------------------------------------------------
g------------------------------------------------------------------------------
d-22-2-22-2-22-2-22-xxxx-------------------------------------------------------
a-22---22---22---22-xxxx-------------------------------------------------------
D-22---22---22---22-xxxx-------------------------------------------------------


Solo: Guitar 1
e------------------------------------------------------------------------------
b------------------------------------------------------------------------------
g-----------7777----------------7777-------------------------------------------
d-2222-4444-7777-7776-2222-4444-7777-7776--------------------------------------
a-2222-4444-5555-7776-2222-4444-5555-7776--------------------------------------
D-2222-4444------7776-2222-4444------7776--------------------------------------


Solo:  Guitar 2 X2                                  2nd time do this when needed 
e--t5p4p0-t5p4p0-t7p5p0-t7p5p0-2s4s2s4s5---------------------|-12b14r12--------
b------------------------------4s5s4s5s7--9h10h12h10h9h7h9h10|-----------------
g------------------------------------------------------------|-----------------
d------------------------------------------------------------|-----------------
a------------------------------------------------------------|-----------------
D------------------------------------------------------------7|-----------------


2nd Interlude Bit: Guitar 1            Guitar 2(on the third time of Guitar 1)
e--------------------------------------------|-------------------------------
b--------------------------------------------|-------------------------------
g--------------------------------------------|-989---------------------------
d-22--44--77--99--------------22--44--7-xxxx-|-xxx----repeated 7X------------
a-22--44--77--99-X5 then this 22--44--7-xxxx-|-767---------------------------
D-22--44--77--99--------------22--44--7-xxxx-|-------------------------------


Chorus: Guitar 1                  
e-----------------------------------------------------------------------
b-----------------------------------------------------------------------
g-----------------------------------------------------------------------
d-22---7767-22---7767-22---7767-22---7646-22---7767-22---7767-22---7767-
a-22---7767-22---7767-22---7767-22---7646-22---7767-22---7767-22---7767-
D-22---7767-22---7767-22---7767-22---7646-22---7767-22---7767-22---7767-

Guitar 1(Play Last bit as many needed till end)(play 10 every 2nd time)
e------------------------------
b------------------------------
g-9999-7777--------------------
d-9999-7777-77777777-10101010--
a-7777-5555-77777777-10101010--
D-----------77777777-10101010--


Guitar 2 (follow Guitar 1)      (After Guitar 1 plays last bit twice)X2
e------------------------------|------------------------------------------------
b------------------------------|-9-109-1012109-10-9-109-109---------------------
g----9---------9---------------|-9-9-9-9-9-9-9-9--9-9-9-9-9-11-9-11-end-on-9----
d-22-x-7767-22-x-7767----------|----------------------------9--9-9---------9----
a-22-7-7767-22-7-7767--etc etc-|------------------------------------------------
D-22---7767-22---7767----------|------------------------------------------------
                              
Comments