Sum 41 - In Too Deep Chords & Tabs

 

In Too Deep Chords & Tabs

Sum 41 Chords & Tabs

Version: 27 Type: Tab 0 ratings
1 star 2 stars 3 stars 4 stars 5 stars
comments

In Too Deep Tab

Hey everyone, I noticed everyone had a bunch of tabs for this song...
but guess what...They are all wrong! This one is 100% correct, it is a great song!

Email me at: SupraSlick15_14@Juno.com
Props go to: Gabe

Sum 41
In Too Deep

x -Mute String or Note
PM -Palm Mute
~ -Vibrato
\ -Slide down
/ -Slide up
h -Hammer on
p -Pull off


Intro & Verse (Guitar 2)

E|----------------------------------------------
B|---------------9------------------------------
G|-----------9----------------------------------
D|--9-9-9--9---9---9----9-9-9-9-7-6-7-9---------
A|----------------------------------------------
E|----------------------------------------------
  PM......................................

E|----------------------------------------------
B|---------------9------------------------------
G|-----------9----------------------------------
D|--9-9-9--9---9---9--9-9-9-9-7-6---------------
A|--------------------------------9-7-----------
E|----------------------------------------------
   PM.................................

Intro & Verse (Guitar 1)

E|----------------------------------------------
B|----------------------------------------------
G|----------------------------------------------
D|-------------6-7-9-7-----------------6--------
A|----7------7-----------0-0-0-0-6-7-9----------
E|--0------0------------------------------------
               PM.....   ..............


E|----------------------------------------------
B|----------------------------------------------
G|----------------------------------------------
D|-------------6-7-9-7-------------------6------
A|----7------7-----------0-0-0-0-0-6-7-9--------
E|--0------0------------------------------------
               PM...     ...............


Verse Part2 (Guitar 2)

E|-------------------------------------------------------
B|----9----9---9-----5----10-10--9--9---9----------------
G|----9----9---9-----6-----9--9--9--9---9----------------
D|----9----9---9-----7----11-11--9--9---9----------------
A|-------------------------------------------------------
E|-------------------------------------------------------
  "Maybe were just tryin to hard...when really its closer..."


Chorus (Guitars 1 & 2)
E|----------------------------------------------
B|----------------------------------------------
G|----------------------------------0-2-2-2-----
D|-2-2-2-2-2-2---------0-2-2-2------0-0-0-0----
A|-4-4-2-2-0-0--2--2---0-0-0-0--2-2-------------
E|--------------0--0------------0-0-------------
   PM.....




E|----------------------------------------------
B|----------------------------------------------
G|------------------7---------------------------
D|--9-----9----7-7--7---------2-2-2-2-----------
A|--7-----7----5-5--5------0--0-0-0-0-----------
E|--0-----0-------------------------------------
  "Instead of goin under...'stead of goin under..."
This is played the second time they sing this part

Interlude (Guitar 2)

E|----------------------------------------------
B|----------------------------------------------
G|--------------------9--------2----------------
D|--x-x-x-x-x---------x-0-2-2--2--0-2-2---------
A|--x-x-x-x-x---2-2---7-0-0-0--x--0-0-0---------
E|--x-x-x-x-x---0-0------------4----------------
Repeat above twice then play


(Guitar 2)
E|----------------------------------------------
B|----------------------------------------------
G|-------13--------2---------13-----------------
D|--------x--0-2-2-2--2-------x-----------------
A|--2-2--11--0-0-0-x--0--2-2-11-----------------
E|--0-0------------4-----0-0--------------------



E|----------------------------------------------
B|----------------------------------------------
G|----------------------------------------------
D|----------------------------------------------
A|-----7---6---4---6----------------------------
E|---5-5---4---2---4----------------------------


Verse II (Guitar 2)


E|----------------------------------------------
B|----------------------------------------------
G|----------------------9--------2--------------
D|-------------6--------x--0-2-2-2--2-----------
A|---2--2------6---2-2--7--0-0-0-x--0-----------
E|---0--0------4---0-0-----------4--------------


E|----------------------------------------------
B|----------------------------------------------
G|--------9-------------------------------------
D|--------x----2----------------------------6---
A|---2-2--7--0-0---6---4---6--2-2-----------6---
E|---0-0-----------4---2---4--0-0-----------4---



E|----------------------------------------------
B|----------------------------------------------
G|----------------------------------------------
D|------------------------------6---------------
A|---7---7--------7----2--2-----6--7-7--6--7----
E|---5---5--------5----0--0-----4--5-5--4--5----



E|----------------------------------------------
B|----------------------------------------------
G|----------------------------------------2-2-2-
D|------------------2-2-2-2-2-------------0-0-0-
A|---2-2-2-2-2-2-2--0-0-0-0-0---2-2-2-2-2-------
E|---0-0-0-0-0-0-0------------0-0-0-0-0-0-------
  PM...............  ..........  ........
"Maybe were just tryin to hard..."


Chorus (See Above)

Interlude (Guitar 1) (before solo)
[ Tab from: http://www.guitartabs.cc/tabs/s/sum_41/in_too_deep_tab_ver_27.html ]
E|----------------------------------------------
B|----------------------------------------------
G|----------------------------------------------
D|----------------------------------------------
A|------7~----7~---7~----7~---------------------
E|--0-0---0-0---0-0---0-0-----------------------

Solo (Guitar 2)

E|--h5p4p0h5p4p0--h7p5p0h7p5p0------------------
B|------------------------------4h5-4h5-7-------
G|----------------------------------------------
D|----------------------------------------------
A|----------------------------------------------
E|----------------------------------------------

E|----------------------------------------------
B|--9p0-10p0--12p0-10p0-9p0-7p0-9p0-7p0---------
G|----------------------------------------------
D|----------------------------------------------
A|----------------------------------------------
E|----------------------------------------------


E|---h5p4p0h5p4p0--h7p5p0h7p5p0-----------------
B|-------------------------------4h5-4h5-7------
G|----------------------------------------------
D|----------------------------------------------
A|----------------------------------------------
E|----------------------------------------------


E|----------------------------------12/14\12~---
B|--9p0-10p0-12p0-10p0-9p0-7p0------------------
G|----------------------------------------------
D|----------------------------------------------
A|----------------------------------------------
E|----------------------------------------------

Under solo (Guitar 1)

E|------------------------------------------------------------
B|------------------------------------------------------------
G|-------------------------7-7-7-7-7--------------------------
D|-------------------------7-7-7-7-7---2-2-2-2-2--2-----------
A|--2-2-2-2-2---4-4-4-4-4--5-5-5-5-5---0-0-0-0-0--x-----------
E|--0-0-0-0-0---2-2-2-2-2-------------------------4-----------


Bridge (Guitar 1 & 2)

E|----------------------------------------------
B|----------------------------------------------
G|----------------------------------------------
D|-------------2-2----4-4-----------------------
A|--2-2---4-4--0-0----2-2-----------------------
E|--0-0---2-2-----------------------------------
  "I cant sit back and wonder why..."
Play above twice...

Bridge PartII (Guitar 2)

E|----------------------------------------------
B|----------------------------------------------
G|--9---9---9---9---9---9---9---9---------------
D|--x---x---x---x---x---x---x---x---------------
A|--7---7---7---7---7---7---7---7---------------
E|----------------------------------------------
   "And I hate it when you fake it..."

Bridge PartII (Guitar 1)

E|-------------------------------------------------------------
B|-------------------------------------------------------------
G|-------------------------------------------------------------
D|-------------2-2----4-4----------------2--2----4--4----------
A|--2-2---4-4--0-0----2-2--2---2--4---4--0--0----2--2----------
E|--0-0---2-2--------------0---0--2---2-----------------7\-----


(Guitars 1 & 2)
E|------------------------------------------------------------
B|------------------------------------------------------------
G|------------------------------------------------------------
D|-------------2-2----4-4------------------2---x-x-x-x-x------
A|--2-2---4-4--0-0----2-2----2--2---4--4---0---x-x-x-x-x------
E|--0-0---2-2----------------0--0---2--2-------x-x-x-x-x------


Chorus (see above)

Outro (Guitar 1)

E|--------------------------------------------------------------------
B|--------------------------------------------------------------------
G|--9-9-9-9--7-7-7-7-----------------------------7-7-7-7--------------
D|--9-9-9-9--7-7-7-7-----------5-5-5-5-----------7-7-7-7--------------
A|--7-7-7-7--5-5-5-5--7-7-7-7--3-3-3-3--2-2-2-2--5-5-5-5--------------
E|--------------------5-5-5-5-----------0-0-0-0-----------------------


E|-----------------------------------------------------------------
B|-----------------------------------------------------------------
G|-------------------9-9-9-9-7-7-7-7-------------------------------
D|--2-2-2-2-2-2-2-2--9-9-9-9-7-7-7-7----------5-5-5-5-5------------
A|--0-0-0-0-0-0-0-0--7-7-7-7-5-5-5-5-7-7-7-7--3-3-3-3-3------------
E|-----------------------------------5-5-5-5-----------------------
                                  "Stead of goin under again...."
E|-------------------------------------------------------------------
B|-------------------------------------------------------------------
G|--9-9-9-9--7-7-7-7-----------------------------2-2-2-2-------------
D|--9-9-9-9--7-7-7-7-----------5-5-5-5-----------0-0-0-0-------------
A|--7-7-7-7--5-5-5-5--7-7-7-7--3-3-3-3--2-2-2-2----------------------
E|--------------------5-5-5-5-----------0-0-0-0----------------------


E|--------------------------------------------------------------------
B|--------------------------------------------------------------------
G|------------------------------------2-2-2-2-------------------------
D|--2-2-2-2-2-2-2-2--5-5-5------------0-0-0-0--2-2-2-2-5-5-5-5--------
A|--0-0-0-0-0-0-0-0--3-3-3--0-2-2-2-2----------0-0-0-0-3-3-3-3--0x----
E|--------------------------0-0-0-0-0---------------------------0x----


Outro (Guitar 2)

E|------------------------------------------------------------------
B|--9--10--9--10--12--10--9--10--9--10--9--10-----------------------
G|--9---9--9---9---9---9--9---9--9---9--9---9-----------------------
D|--------------------------------------------11-9-11---------------
A|--------------------------------------------11-9-11---------------
E|------------------------------------------------------------------
  "Instead of goin under again..." play this a bunch of times


This is the ENTIRE song it took many hours so appreciate it!
Comments