Sum 41 - In Too Deep Chords & Tabs

 

In Too Deep Chords & Tabs

Sum 41 Chords & Tabs

Version: 24 Type: Tab 0 ratings
1 star 2 stars 3 stars 4 stars 5 stars
comments

In Too Deep Tab

   
------------------------------------------------------------
                    In Too Deep - Sum 41                    
------------------------------------------------------------

By:xtreme_ryguy

x=palm mute
>=accent note (play louder)
h=hammer on
p=pull off
b=bend
/=slide up

Intro:
e|---------------------------------------------------|
B|---------------------------------------------------|
G|---------------------------------------------------|x6
D|----------------------9--------------------------6-|
A|----7--------9-11-12-----12---0-0-0--0--6--7--9----|
E|-0-----0--0----------------------------------------|
   x  >  x  x  x x  x           x x    

Intro 2:
e|----------------------------------------------------|
B|-----9-----9---9-----14-----14---14-----9-----9---9-|
G|-x-x-9-x-x-9-x-9-x-x-14-x-x-14-x-14-x-x-9-x-x-9-x-9-|x1
D|-x-x-9-x-x-9-x-9-x-x-14-x-x-14-x-14-x-x-9-x-x-9-x-9-|
A|-x-x-7-x-x-7-x-7-x-x-12-x-x-12-x-12-x-x-7-x-x-7-x-7-|
E|----------------------------------------------------|

e|-----------------|
B|-----------------|
G|-2-2-2-2-2-2-2-2-|x1
D|-2-2-2-2-2-2-2-2-|
A|-0-0-0-0-0-0-0-0-|
E|-----------------|
   x x x (slowly let ring)

Chorus:
e|---------------------------------------------------------
B|---------------------------------------------------------
G|---------2-2-2-2---------2-2-2-2---------2-2-2-2---------
D|-2-2-2-2-2-2-2-2-2-2-2-2-2-2-2-2-2-2-2-2-2-2-2-2-2-2-2-2-
A|-2-2-2-2-0-0-0-0-2-2-2-2-0-0-0-0-2-2-2-2-0-0-0-0-2-2-2-2-
E|-0-0-0-0---------0-0-0-0---------0-0-0-0---------0-0-0-0-

e----------------------------------------------------------
B----------------------------------------------------------
G-2-2-xxxx---------2-2-2-2---------2-2-2-2---------2-2-2-2-
D-2-2-xxxx-2-2-2-2-2-2-2-2-2-2-2-2-2-2-2-2-2-2-2-2-2-2-2-2-
A-0-0-xxxx-2-2-2-2-0-0-0-0-2-2-2-2-0-0-0-0-2-2-2-2-0-0-0-0-
E----------0-0-0-0---------0-0-0-0---------0-0-0-0---------

e----------------------------------|
B----------------------------------|
G-9-9-9-9-7-7-7-7------------------|x1
D-9-9-9-9-7-7-7-7-7-7-7-7-xxxxxxxx-|
A-7-7-7-7-5-5-5-5-7-7-7-7-xxxxxxxx-|
E-----------------5-5-5-5-xxxxxxxx-|

e|------------------------------------------------
B|------------------------------------------------
G|-------9---x-------------------9---x------------
D|-2--2--x---x-7--7--6--5--2--2--x---x-7--7--6--7-
A|-2--2--7---x-7--7--6--5--2--2--7---x-7--7--6--7-
E|-0--0--------5--5--4--5--0--0--------5--5--4--5-

e--------------------------------------------------|
B--------------------------------------------------|
G-------13---x-------------------13---x------------|x1
D-2--2---x---x-7--7--6--7--2--2---x---x-7--6--4--6-|
A-2--2--11---x-7--7--6--7--2--2--11---x-7--6--4--6-|
E-0--0---------5--5--4--5--0--0---------5--4--2--4-|

Verse:(x2)
e|---------------------------------------------------------|
B|---------------------------------------------------------|
G|---------------------------------------------------------|
D|-2--2----6---7--7----7---2--2----6---7--7---6---7-7---7-|
A|-2--2----6---7--7----7---2--2----6---7--7---6---7-7---7-|
E|-0--0----4---5--5----5---0--0----4---5--5---4---5-5---5-|

Pre Chorus:
e|---------------------------------|
B|---------------------------------|
G|-----------------2-2-2-2-2-2-2-2-|x2
D|-2-2-2-2-2-2-2-2-2-2-2-2-2-2-2-2-|
A|-2-2-2-2-2-2-2-2-0-0-0-0-0-0-0-0-|
E|-0-0-0-0-0-0-0-0-----------------|
     x x x x x x x   x x x x x x x
(slowly let last part ring second time through)
[ Tab from: http://www.guitartabs.cc/tabs/s/sum_41/in_too_deep_tab_ver_24.html ]
Chorus:
e|---------------------------------------------------------
B|---------------------------------------------------------
G|---------2-2-2-2---------2-2-2-2---------2-2-2-2---------
D|-2-2-2-2-2-2-2-2-2-2-2-2-2-2-2-2-2-2-2-2-2-2-2-2-2-2-2-2-
A|-2-2-2-2-0-0-0-0-2-2-2-2-0-0-0-0-2-2-2-2-0-0-0-0-2-2-2-2-
E|-0-0-0-0---------0-0-0-0---------0-0-0-0---------0-0-0-0-

e----------------------------------------------------------
B----------------------------------------------------------
G-2-2-xxxx---------2-2-2-2---------2-2-2-2---------2-2-2-2-
D-2-2-xxxx-2-2-2-2-2-2-2-2-2-2-2-2-2-2-2-2-2-2-2-2-2-2-2-2-
A-0-0-xxxx-2-2-2-2-0-0-0-0-2-2-2-2-0-0-0-0-2-2-2-2-0-0-0-0-
E----------0-0-0-0---------0-0-0-0---------0-0-0-0---------

e----------------------------------|
B----------------------------------|
G-9-9-9-9-7-7-7-7------------------|x1
D-9-9-9-9-7-7-7-7-7-7-7-7-7-7-7-7--|
A-7-7-7-7-5-5-5-5-7-7-7-7-7-7-7-7--|
E-----------------5-5-5-5-5-5-5-5--|

e|------------------------------------------|
B|------------------------------------------|
G|-9-9-9-9-7-7-7-7--------------------------|x1
D|-9-9-9-9-7-7-7-7-7-7-7-7-7-7-7-7-xxxxxxxx-|
A|-7-7-7-7-5-5-5-5-7-7-7-7-7-7-7-7-xxxxxxxx-|
E|-----------------5-5-5-5-5-5-5-5-xxxxxxxx-|

Interlude:
e|----------------------------------|
B|----------------------------------|
G|------9-------9-------9-----------|x1
D|-2-2--x--2-2--x--2-2--x--2-xxxxxx-|
A|-2-2--7--2-2--7--2-2--7--2-xxxxxx-|
E|-0-0-----0-0-----0-0-----0-xxxxxx-|

Solo:
e|-5p4p0-5p4p0-7p5p0-7p5p0-------------------------------
B|-------------------------4h5p4h5/7-9p0-10p0-12p0-10p0-
G|-------------------------------------------------------
D|-------------------------------------------------------
A|-------------------------------------------------------
E|-------------------------------------------------------

e------------------5p4p0-5p4p0-7p5p0-7p5p0---------------
B-9p0-7p0-9p0-10p0-------------------------4h5p4h5/79p0-
G--------------------------------------------------------
D--------------------------------------------------------
A--------------------------------------------------------
E--------------------------------------------------------

*Full bend (bend to 14th fret), about to the G string, and
bring back down holding note.
e------------------------12b*12-|
B-10p0-12p0-10p0-9p0-7p0--------|
G-------------------------------|x1
D-------------------------------|
A-------------------------------|
E-------------------------------|

e|------------------------------|
B|------------------------------|
G|------------------------------|x5
D|-2--2----4--4----7--7----9--9-|
A|-2--2----4--4----7--7----9--9-|
E|-0--0----2--2----5--5----7--7-|

e|-------------------------------|
B|-------------------------------|
G|-------------------------------|x1
D|-2--2----4--4----7----xxxxxxxx-|
A|-2--2----4--4----7----xxxxxxxx-|
E|-0--0----2--2----5----xxxxxxxx-|


Chorus


e----------------------------------|
B----------------------------------|
G-9-9-9-9-7-7-7-7------------------|(play however many
D-9-9-9-9-7-7-7-7-7-7-7-7-7-7-7-7--|times until outro)
A-7-7-7-7-5-5-5-5-7-7-7-7-7-7-7-7--|
E-----------------5-5-5-5-5-5-5-5--|


Outro:
e|----------------------------------------------------------
B|-9-10-9-10-12-10-9-10-9-10-9-10-9---------9-10-9-10-12-10-
G|-9--9-9--9--9--9-9--9-9--9-9--9-9-11-9-11-9--9-9--9--9--9-
D|----------------------------------11-9-11-----------------
A|----------------------------------------------------------
E|----------------------------------------------------------

e----------------------------|
B-9-10-9-10-9-10-9-----------|
G-9--9-9--9-9--9-9-11-9-11-9-|x1
D------------------11-9-11-9-|
A----------------------------|
E----------------------------|

If I am missing anything, email me at extremebiker1@hotmail.com.
============================================================
Comments