Sum 41 - In Too Deep Chords & Tabs

 

In Too Deep Chords & Tabs

Sum 41 Chords & Tabs

Version: 22 Type: Tab 0 ratings
1 star 2 stars 3 stars 4 stars 5 stars
comments

In Too Deep Tab

IN TOO DEEP (solo)
Sum 41
Tabbed by isthatmycow (aka Will Fuller)
 
for all you bums who think this solo is tapped,
                 IT'S NOT!!!

HERE'S HOW YOU REALLY PLAY IT!

*each guitar 2 line is played at the same time as the guitar 1 line it follows*
 
Guitar 1 w/distortion
|--5p4p0-5p4p0-7p5p0-7p5p0---------------------------------
|--------------------------4h5p4h5\7---0h9-0h10-0h12-0h10--
|----------------------------------------------------------
|----------------------------------------------------------
|----------------------------------------------------------
|----------------------------------------------------------

Guitar 2 w/distortion
|----------------------------------------------------------
|------------------------11h13p11h13\14--------------------
|----------------------------------------------------------
|----------------------------------------------------------
|----------------------------------------------------------
|----------------------------------------------------------
[ Tab from: http://www.guitartabs.cc/tabs/s/sum_41/in_too_deep_tab_ver_22.html ]
Guitar 1
|------------------5p4p0-5p4p0-7p5p0-7p5p0-----------------
|-0h9-0h7-Oh9-0h10-------------------------4h5p4h5\7---0h9-
|----------------------------------------------------------
|----------------------------------------------------------
|----------------------------------------------------------
|----------------------------------------------------------

Guitar 2
|----------------------------------------------------------
|---------------------------------------11h13p11h13\14-----
|----------------------------------------------------------
|----------------------------------------------------------
|----------------------------------------------------------
|----------------------------------------------------------

Guitar 1
|------------------------12b14b12~--
|-0h10-0h12-0h10-0h9-0h7------------
|-----------------------------------
|-----------------------------------
|-----------------------------------
|-----------------------------------

Guitar 2
|------------------------16b17b16---
|-----------------------------------
|-----------------------------------
|-----------------------------------
|-----------------------------------
|-----------------------------------

thats it....if you're playin with just one guitar(like me), you can play the last note like this if you 
want the harmony

|--16b17b16-------
|--17b19b17-------
|-----------------
|-----------------
|-----------------
|-----------------

leave your comments please
Comments