Sum 41 - In Too Deep Chords & Tabs

 

In Too Deep Chords & Tabs

Sum 41 Chords & Tabs

Version: 21 Type: Tab 0 ratings
1 star 2 stars 3 stars 4 stars 5 stars
comments

In Too Deep Tab

This Solo is tapped,even though nobody thinks so...Try it!
[ Tab from: http://www.guitartabs.cc/tabs/s/sum_41/in_too_deep_tab_ver_21.html ]
   T   P H   T   P H   T   P H   T   P H    S   S
e|----------------------------------------------------------
B|-10-9-5-9--10-9-5-9--12-9-5-9--12-9-5-9----------7--------
G|-----------------------------------------8/9-8/9----------
D|----------------------------------------------------------
A|----------------------------------------------------------
E|----------------------------------------------------------
                               1st Ending   2nd Ending
    T    T    T    T   T   T     T    T        S 
e|----------------------------(----------)-(-12/14-12-)-----
B|-9-0-10-0-12-0-10-0-9-0-7-0-(-9-0-10-0-)-(----------)----
G|----------------------------(----------)-(----------)----
D|----------------------------(----------)-(----------)----
A|----------------------------(----------)-(----------)----
E|----------------------------(----------)-(----------)----
Comments