Sum 41 - In Too Deep Chords & Tabs

 

In Too Deep Chords & Tabs

Sum 41 Chords & Tabs

Version: 20 Type: Tab 0 ratings
1 star 2 stars 3 stars 4 stars 5 stars
comments

In Too Deep Tab

E:--5p4p0-5p4p0-7p5p0-7p5p0--------------------------------:
B:--------------------------7--9--7--10--------0---9p0-10p0:
G:---------------------------------------------------------:
D:---------------------------------------------------------:
A:---------------------------------------------------------:
E:---------------------------------------------------------:
[ Tab from: http://www.guitartabs.cc/tabs/s/sum_41/in_too_deep_tab_ver_20.html ]
                   dont do this the second time
E:----------------/------\-16h17h16------------------------:
B:-12--10--9p0-7p0-9p0-10----------------------------------:
G:---------------------------------------------------------:
D:---------------------------------------------------------:
A:---------------------------------------------------------:
E:---------------------------------------------------------:
Comments