Sum 41 - In Too Deep Chords & Tabs

 

In Too Deep Chords & Tabs

Sum 41 Chords & Tabs

Version: 19 Type: Tab 0 ratings
1 star 2 stars 3 stars 4 stars 5 stars
comments

In Too Deep Tab

I've seen a lot of crappy solos here, so here's the real thing, straight from the tab book
[ Tab from: http://www.guitartabs.cc/tabs/s/sum_41/in_too_deep_tab_ver_19.html ]
E-5p4p0-5p4p0-7p5p0-7p5p0--------------------------------
B-------------------------7h9-7h9-10-9-10-12-10-9--------
G-------------------------------------------------11-9-11
D--------------------------------------------------------
A--------------------------------------------------------
E--------------------------------------------------------

E-5p4p0-5p4p0-7p5p0-7p5p0----------------------------12b14
B-------------------------7h9-7h9-10-9-10-12-10-9---------
G-------------------------------------------------11------
D---------------------------------------------------------
A---------------------------------------------------------
E---------------------------------------------------------
Comments