Sum 41 - In Too Deep Chords & Tabs

 

In Too Deep Chords & Tabs

Sum 41 Chords & Tabs

Version: 13 Type: Tab 0 ratings
1 star 2 stars 3 stars 4 stars 5 stars
comments

In Too Deep Tab

          Tab: In Too Deep 
          By: Sum 41
          
          
          Intro:
          
          Guitar 1:
          E|--------------------------------------
          B|--------------------------------------
          G|-----------1-2-4-2------------------1-
          D|---2-----2--------------------1-2-4---
          A|---------------------0-0-0--0---------
          E|-0-----0------------------------------
          
          Guitar 2: (Starts when guitar 1 plays the first 2 on the D string)
          Note:(Not lined up to match guitar one)
          E|--------------4-----------------------
          B|----------5---------------------------
          G|-4-4-4--4---4---4----4-4-4--4-------4-
          D|------------------------------7-6-7---
          A|--------------------------------------
          E|--------------------------------------
          
          
          You should be able to figure out the chords on your own, the chorus is just the E and A 
          chords palm muted
          
          Enjoy






[ Tab from: http://www.guitartabs.cc/tabs/s/sum_41/in_too_deep_tab_ver_13.html ]
Comments