Sum 41 - In Too Deep Chords & Tabs

 

In Too Deep Chords & Tabs

Sum 41 Chords & Tabs

Version: 11 Type: Tab 0 ratings
1 star 2 stars 3 stars 4 stars 5 stars
comments

In Too Deep Tab

sum 41-in too deep.
 Tabbed by alex, TempVoid04@aol.com.
  
sum 41-in too deep
track 7
TempVoid04@aol.com

straight up, the verse isn't totally right. but it sounds pretty good, and its better than the other tab that geniusboy did for this song. \"heres the intro, its wrong, and you can figure out the chords yourself.\" wtf? aren't tabs supposed to tell you the chords because you are too lazy to figure them out yourself? thats what i thought. so, being the great guy i am, i tabbed out the chords for you lazy people. lazy people rule!! why, you ask? that is one of the many secrets of the universe. muhahaha. oh yea, this is important. if the tab looks messed up, save it and VIEW IT IN GENEVA! have fun
[ Tab from: http://www.guitartabs.cc/tabs/s/sum_41/in_too_deep_tab_ver_11.html ]
intro/verse-gtr 1, clean, pm
E--------------0--------------------------------
B----0-0-0-0-----0-0----0-0-0-0-----------------
G---------------------2------------2-1-2-1------
D-----------------------------------------------
A-----------------------------------------------
E----------------------------------------------
gtr 2-clean, no pm. i kind of tried to line this part up w/ gtr 1, so you can see where to play
E------------------------------------------------------
B-0------------------2-0------------------------------
G------------------------------------1-2-4-------------
D------------------------------------------------------
A------------------------------------------------------
E------------------------------------------------------
prechorus-dist
E-----------------------------------------------------------
B-----------------------------------------------------------
G----13---13-13---14---14-14---13---13-13---14--------------
D----13---13-13---14---14-14---13---13-13---14--------------
A-----------------------------------------------------------
E-----------------------------------------------------------
chorus-dist
E-----------------------------------------------------
B-----------------------------------------------------
G---------------2-2-2-2-------------2-2-2-2-------------------
D----2-2-2-2---2-2-2-2---2-2-2-2---2-2-2-2------------
A----2-2-2-2---0-0-0-0---2-2-2-2---0-0-0-0------------
E----0-0-0-0--------------0-0-0-0---------------
postchorus
E----------------------------------xxxxxx---------------
B----------------------------------xxxxxx--------------
G----9-9-9-9---7-7-7-7------------xxxxxx--------
D----9-9-9-9---7-7-7-7---7-7-7-7--xxxxxx------------
A----7-7-7-7---5-5-5-5---7-7-7-7--xxxxxx------------
E--------------------------5-5-5-5--xxxxxx------------
\"instead of going under\"
preverse
E-------------------------
B-------------------------
G-----/9\\-----------------
D-2-2-------7-7-6-7-----
A-2-2-/7\\---7-7-6-7-----
E-0-0-------5-5-4-5----- 4x
verse
E---------------------------------------------------
B---------------------------------------------------
G---------------------------------------------------
D-2-2---6---7-7---7---2-2---6---7-7---6---7-7----
A-2-2---6---7-7---7---2-2---6---7-7---6---7-7----
E-0-0---4---5-5---5---0-0---4---5-5---4---5-5----
prechorus
E-----------------------------------------
B-----------------------------------------
G-----------------------------------------
D-2-2---7-7---2-2---7-7-7-7-7-7-7-7----
A-2-2---7-7---2-2---7-7-7-7-7-7-7-7----
E-0-0---5-5---0-0---5-5-5-5-5-5-5-5----
chorus
postchorus
pre-solo
E------------------------
B------------------------
G-----9-------------------
D-2-----------------------
A-2---7--------------------
E-0----------------------- 4x
solo-backup chords
E-------------------------------
B-------------------------------
G-------------7--7---------------
D-2-2---4-4--7--7---7-7----
A-2-2---4-4--5--5---7-7----
E-0-0---2-2----------5-5----
solo-gtr 2                                                                      
E-4h5-4h5---7p0-0-7p0-0--2h4-2h4---5---4h5-4h5---7p0-0-7p0-0---4-2-4-5---
B-------------------------------------------------------------------------
G-------------------------------------------------------------------------
D-------------------------------------------------------------------------
A-------------------------------------------------------------------------
E-------------------------------------------------------------------------

E-4h5-4h5---7p0-0-7p0-0---2h4-2h4---5---4h5-4h5---7p0-0-7p0-0---4-2---12b14r12-
B------------------------------------------------------------------------------
G------------------------------------------------------------------------------
D------------------------------------------------------------------------------
A------------------------------------------------------------------------------
E------------------------------------------------------------------------------
yea, this is not totally right either, but their guitarist uses some sort of whammy pedal on it. if you want to fancy it up and make it look cool, play it on the B string and right hand tap the whole thing. hell yea
verse
E--------------------------
B-------------------------
G--------------------------
D-2-2---4-4---7-7---9-9---
A-2-2---4-4---7-7---9-9--
E-0-0---2-2---5-5---7-7--

gtr 2
E----------------------------------
B----------------------------------
G----9\\8/9---9\\8/9---9\\8/9---13----
D-----------------------------------
A----7\\6/7---7\\6/7---7\\6/7---11----
E----------------------------------
\"and i hate it\"
play the preverse but sing the chorus
post chorus
outro-comes in after the vocals stop. after everything else stops and its just this playing, drone the b string underneath. these are eighth notes.
E----4-5-4-5-7-5-4-5-4-5-4-5-4-2-0-2-(0)--------------
B-----------------------------------------------------------------------------------
G-----------------------------------------------------------------------------------
D-----------------------------------------------------------------------------------
A-----------------------------------------------------------------------------------
E-----------------------------------------------------------------------------------

rock on, sum 41 kicks ass.
 
:: Ultimate Guitar Archive :: 
http://www.ultimate-guitar.com 



Comments