Sum 41 - In Too Deep Chords & Tabs

 

In Too Deep Chords & Tabs

Sum 41 Chords & Tabs

Version: 1 Type: Tab 0 ratings
1 star 2 stars 3 stars 4 stars 5 stars
comments

In Too Deep Tab

   
In Too Deep - Sum 41

I've decided to transcribe this song because its so easy and everyone keeps on getting it wrong.
There are no tricky bits, if so then practice makes perfect.  The solo isn't that difficult and
if done right sounds great.  Here it is then:

Tuning : D A D G B E

Intro + Verse   (2 guitars are playing different riffs)

       PM>>>>>>>>>>>>>>>>>>>>>>>>>>>>>>>>>>>>>>>>>>>>>>>>>>>>>>>>>>>>>>>>>>>>>>>>>>
E-|----------------------------------------------------------------------------------
B-|--------------------------------9-------------------------------------------------
G-|----------------------9-----------------------------------------------------------
D-|------9--9--9----9---------9--------9----------9--9--9----9----7----6----7----9---
A-|----------------------------------------------------------------------------------
D-|----------------------------------------------------------------------------------

        E                     A                    E                 A5
E-|---------------------------5-----5-----5---------------------------------------------------
B-|-----9------9----9---------5-----5-----5--------9-----9----9-------------------------------
G-|-----9------9----9---------6-----6-----6--------9-----9----9-------------------------------
D-|-----9------9----9---------7-----7-----7--------9-----9----9------7--7--7--7--7--7--7--7---
A-|------------------------------------------------------------------7--7--7--7--7--7--7--7---
D-|------------------------------------------------------------------7--7--7--7--7--7--7--7---


Chorus:   E    A   (X7)  Then....
        
                                            (>)  
E-|-------------------------------------------------------------------------------
B-|-------------------------------------------------------------------------------
G-|--9--9-----7--7----------------------------------------------------------------
D-|--9--9-----7--7------7--7--X-X-X-X-X-X-----------------------------------------
A-|--7--7-----5--5------7--7--X-X-X-X-X-X-----2--2-s-7---7--7--6--7---------------
D-|---------------------5--5--X-X-X-X-X-X-----2--2-------7--7--6--7---------------

[ Tab from: http://www.guitartabs.cc/tabs/s/sum_41/in_too_deep_tab.html ]
E-|-----------------------------------------------------------------
B-|-----------------------------------------------------------------
G-|-----------------------------------------------------------------
D-|-----------------------------------------------------------------
A-|---2--2-s-11---7--7--6--7-----2--2-s-11---7--7--6--4-------------
D-|---2--2--------7--7--6--7-----2--2--------7--7--6--4-------------


Verse 2:  

      E        G#   A                E        G#   A    G#   A
E-|------------------------------------------------------------------------
B-|------------------------------------------------------------------------
G-|------------------------------------------------------------------------   X2   
D-|---2--2------6---7--7--------7----2--2-----6---7--7---6---7--7----------
A-|---2--2------6---7--7--------7----2--2-----6---7--7---6---7--7----------
D-|---2--2------6---7--7--------7----2--2-----6---7--7---6---7--7----------

        PM>>>>>>>>>>>>>>>>>    >>>>>>>>>>>>>>>>>>>>>
E-|--------------------------------------------------------
B-|--------------------------------------------------------
G-|--------------------------------------------------------  X2
D-|--------------------------------------------------------
A-|--2--2--2--2--2--2--2----7--7--7--7--7--7--7--7---------
D-|--2--2--2--2--2--2--2----7--7--7--7--7--7--7--7---------


Chorus
 

Solo:


Figure (i)
        
E-|---5-p-4-p-0--5-p-4-p-0--7-p-5-p-0--7-p-5-p-0--2-h-4-p-2-h-4-s-5---------
B-|-------------------------------------------------------------------------

Figure (ii)

E-|--------------------------------------------------------------
B-|--9-p-0--10-p-0--12-p-0--10-p-0--9-p-0--7-p-0--9-p-0--10------

Back to figure (i) then

E-|--------------------------------------------------------------------------
B-|--9-p-0--10-p-0--12-p-0--10-p-0--9-p-0--7-p-0---17(19)-bd-(17)-bu-(19)----

Verse 3:

    
E-|-----------------------------------
B-|-----------------------------------
G-|-----------------------------------
D-|--2--2----4--4----7--7----9--9-----
A-|--2--2----4--4----7--7----9--9-----
D-|--2--2----4--4----7--7----9--9-----


Chorus


End Riff:

(This riff is played right through to the end)

E-|--------------------------------------------------------||--0---
B-|--9--10--9--10--12--10--9--10--9--10--9--10--9--7--5--7-||--5---

Let the E string ring out (open) on some of the tabs.



That is basically it.  The chorus changes slightly at the end of the song but you'll 
find that it slides up to string 7 and 11 after the E and A chords.  Everything that
is in the song is here, you'll just have to mix it around sometimes!!!

Any queries or requests e-mail me at lidgett99@hotmail.com

Good Luck!!!
Comments