Sum 41 - In Too Deep Solo Chords & Tabs

 

In Too Deep Solo Chords & Tabs

Sum 41 Chords & Tabs

Version: 1 Type: Tab 0 ratings
1 star 2 stars 3 stars 4 stars 5 stars
comments

In Too Deep Solo Tab

That's the solo from "In Too Deep".
It's kind of easy and I'm pretty sure that
it's ok so have fun!!!

If you have any corrections or comments, 
you can e-mail me at: julesveine@hotmail.com
Thank you!

It goes like this:

e|4-5-7-5-4-5-4-5-2----------------------|     
B|---------------------------------------|
G|---------------------------------------|
D|---------------------------------------|
A|---------------------------------------|
E|---------------------------------------|

It continues:
[ Tab from: http://www.guitartabs.cc/tabs/s/sum_41/in_too_deep_solo_tab.html ]
e|4-5-7-5-4-5-4-2------------------------|
B|---------------------------------------|
G|---------------------------------------|
D|---------------------------------------|
A|---------------------------------------|
E|---------------------------------------|

It keeps going:

e|4-5-7-5-4-5-4-5-2----------------------|
B|---------------------------------------|
G|---------------------------------------|
D|---------------------------------------|
A|---------------------------------------|
E|---------------------------------------|

The ending goes like this: 

e|4-5-7-5-4-2-0-14-12--------------------|
B|---------------------------------------|
G|---------------------------------------|
D|---------------------------------------|
A|---------------------------------------|
E|---------------------------------------|
Comments