Sum 41 - Im Not The One Chords & Tabs

 

Im Not The One Chords & Tabs

Sum 41 Chords & Tabs

Version: 5 Type: Tab 0 ratings
1 star 2 stars 3 stars 4 stars 5 stars
comments

Im Not The One Tab

PM = .
Slide up = /
Slide down = \

Intro - four times - I1          Intro - two times - with I1
/------------------------------\/---------------------------------\
Guitar 1 - x4                  ||Guitar 2 - x2  PM                ||
E|-----------------------------||E|-------------------------------||
B|-----------------------------||B|-------------------------------||
G|-----------------------------||G|-------------------------------||
D|-2-2-7-7-9-9-4-4-------------||D|-2222-7777-9999-4444-----------||
A|-2-2-7-7-9-9-4-4-------------||A|-2222-7777-9999-4444-----------||
E|-0-0-5-5-7-7-2-2-------------||E|-0000-5555-7777-2222-----------||

Intro - comes in two times after I1 has played 
/----------------------------------------------------------------\
Guitar 2                                                          ||
E|---4-----4----4----4-----4---4-------4--------------------------||
B|-----5-----5----5----5-----5---5-4/5---5---4/5-4/5--------------||
G|-6-----6-----6----6----6----------------------------------------||
D|----------------------------------------------------------------||
A|----------------------------------------------------------------||
E|----------------------------------------------------------------||

Intro - I2 - comes in after I1     Intro - four times - With I2
/---------------------------------\/--------------------------------\
Guitar 1 - x4                     ||Guitar 2 - x4                   ||
E|--------------------------------||E|-4---4----------5/10----------||
B|--------------------------------||B|---5---5---5------------------||
G|--------------------------------||G|---------6--------------------||
D|-2222-7777-9999-4444------------||D|------------------------------||
A|-2222-7777-9999-4444------------||A|------------------------------||
E|-0000-5555-7777-2222------------||E|------------------------------||

Four times - v1                     after v1
/---------------------------------\/------------------\
Guitar 1 - x4   PM                ||Guitar 2          ||
E|--------------------------------||E|----------------||
B|--------------------------------||B|----------------||
G|--------------------------------||G|----------------||
D|--------------------------------||E|----------------||
A|-2-2-2--2-4-5-2-2-2-2--2--------||A|-22-4-0---------||
E|-0-2-0--2-2-3-2-0-0-0--0--------||E|-00-2-0---------||

Four times - v2                     after v2
/---------------------------------\/------------------\
Guitar 1 - x4   PM                ||Guitar 2          ||
E|--------------------------------||E|----------------||
B|--------------------------------||B|----------------||
G|--------------------------------||G|-22222222-------||
D|--------------------------------||E|-22222222-------||
A|-2-2-2--2-4-5-2-2-2-2--2--------||A|-22222222-------||
E|-0-2-0--2-2-3-2-0-0-0--0--------||E|----------------||

Chorus - two times 
/-------------------------------------------------\
Guitar 1 - x2                                     ||
E|------------------------------------------------||
B|------------------------------------------------||
G|------------------------------------------------||
D|-22222222-77777777-66666666-99999999------------||
A|-22222222-77777777-66666666-99999999------------||
E|-00000000-55555555-44444444-77777777------------||
[ Tab from: http://www.guitartabs.cc/tabs/s/sum_41/im_not_the_one_tab_ver_5.html ]
Four times - v1                     after v1
/---------------------------------\/------------------\
Guitar 1 - x4   PM                ||Guitar 2          ||
E|--------------------------------||E|----------------||
B|--------------------------------||B|----------------||
G|--------------------------------||G|----------------||
D|--------------------------------||E|----------------||
A|-2-2-2--2-4-5-2-2-2-2--2--------||A|-22-4-0---------||
E|-0-2-0--2-2-3-2-0-0-0--0--------||E|-00-2-0---------||
   
Four times - v2                     after v2
/---------------------------------\/------------------\
Guitar 1 - x4   PM                ||Guitar 2          ||
E|--------------------------------||E|----------------||
B|--------------------------------||B|----------------||
G|--------------------------------||G|-22222222-------||
D|--------------------------------||E|-22222222-------||
A|-2-2-2--2-4-5-2-2-2-2--2--------||A|-22222222-------||
E|-0-2-0--2-2-3-2-0-0-0--0--------||E|----------------||
  
Chorus - two times 
/-------------------------------------------------\
Guitar 1 - x2                                     ||
E|------------------------------------------------||
B|------------------------------------------------||
G|------------------------------------------------||
D|-22222222-77777777-66666666-99999999------------||
A|-22222222-77777777-66666666-99999999------------||
E|-00000000-55555555-44444444-77777777------------||

four times
/---------------------------------\
Guitar 2 - x4                     ||
E|--------------------------------||
B|--------------------------------||
G|------55------55----------------||
D|-22-2-55-22-2-55-4444-7777------||
A|-22-2-33-22-2-33-4444-7777------||
E|-00-0----00-0----2222-5555------||

twelve times
/---------------------------------\
Guitar 1 - x12                    ||
E|--------------------------------||
B|--------------------------------||
G|----------55-4-5-6-4------------||
D|-22-22-22-55-4-5-6-4------------||
A|-22-22-22-33-2-3-4-2------------||
E|-00-00-00-----------------------||

four times
/-----------------------------------------------------------------\
Guitar 2 - x4                                                     ||
E|----------------------------------------------------------------||
B|----------------------------------------------------------------||
G|----------------------------------------------------------------||
D|----------------------------------------------------------------||
A|--------8---------10---9----9/10-----8---------10-8-7-8-10-11-10||
E|-10\6-6---6-6-6-6----6--6-6------6-6---6-6-6-6------------------||
   . .   . . . .    .  . .      . .   . . . .  
four times
/-----------------\
Guitar 1 - x4     ||
E|----------------||
B|----------------||
G|----------------||
D|-22222222-9-----||
A|-22222222-9-----||
E|-00000000-7-----||


/-----------------\
Guitar 2          ||
E|----------------||
B|-15\1-----------||
G|----------------||
D|----------------||
A|----------------||
E|----------------||

Chorus - two times 
/-------------------------------------------------\
Guitar 1 - x2                                     ||
E|------------------------------------------------||
B|------------------------------------------------||
G|------------------------------------------------||
D|-22222222-77777777-66666666-99999999------------||
A|-22222222-77777777-66666666-99999999------------||
E|-00000000-55555555-44444444-77777777------------||

Outro
/-------------------------------------------------\
Guitar 2                                          ||
E|------------------------------------------------||
B|------------------------------------------------||
G|------55------55------66------------------------||
D|-22-2-55-22-2-55-22-2-66-2--2-2-2---------------||
A|-22-2-33-22-2-33-22-2-44-2--2-2-2---------------||
E|-00-0----00-0----00-0----0--0-0-0---------------||
                              . . .








Originally Tabbed by: T-Rent
Submitted by: TheMutts
Comments