Sum 41 - Hooch Chords & Tabs

 

Hooch Chords & Tabs

Sum 41 Chords & Tabs

Version: 5 Type: Tab 0 ratings
1 star 2 stars 3 stars 4 stars 5 stars
comments

Hooch Tab

   
this song is in drop d.

intro x2

e--------------------------------------------------------------------------
b--------------------------------------------------------------------------
g--------------------------------------------------------------------------
d--------------------------------------------------------------------------
a--------------------------------------------------------------------------
d-222p0-222p0-222p0-222p0-55555555-00000000--------------------------------

main riff.x2

e--------------------------------------------------------------------------
b--------------------------------------------------------------------------
g--------------------------------------------------------------------------
d-222p0-222p0-222p0-222p0-55555555-00000000--------------------------------
a-222p0-222p0-222p0-222p0-55555555-00000000--------------------------------
d-222p0-222p0-222p0-222p0-55555555-00000000--------------------------------

verse 1

e--------------------------------------------------------------------------
b--------------------------------------------------------------------------
g--------------------------------------------------------------------------
d-222-222-222-222-55555555-00000000---------x2-----------------------------
a-222-222-222-222-55555555-00000000----------------------------------------
d-222-222-222-222-55555555-00000000----------------------------------------
pm... ... ... ... ........ ........

e--------------------------------------------------------------------------
b--------------------------------------------------------------------------
g--------------------------------------------------------------------------
d-222-222-222-222-555-555-000-000-----------x1-----------------------------
a-222-222-222-222-555-555-000-000------------------------------------------
d-222-222-222-222-555-555-000-000------------------------------------------
pm... ... ... ... ... ... ... ...

e--------------------------------------------------------------------------
b--------------------------------------------------------------------------
g--------------------------------------------------------------------------
d-222-222-222-222-55555555-00000000----------x1----------------------------
a-222-222-222-222-55555555-00000000----------------------------------------
d-222-222-222-222-55555555-00000000----------------------------------------

chorus.

e--------------------------------------------------------------------------
b--------------------------------------------------------------------------
g--------12-------12-------------------------------------------------------
d---2--0--x--2--0--x--55555555-00000000--------x2--------------------------
a---2--0-10--2--0-10--55555555-00000000------------------------------------
d---2--0-----2--0-----55555555-00000000------------------------------------

verse 2

e--------------------------------------------------------------------------
b--------------------------------------------------------------------------
g--------------------------------------------------------------------------
d-222-222-222-222-55555555-00000000----------x2----------------------------
a-222-222-222-222-55555555-00000000----------------------------------------
d-222-222-222-222-55555555-00000000----------------------------------------
pm... ... ... ... ........ ........

e--------------------------------------------------------------------------
b--------------------------------------------------------------------------
g--------------------------------------------------------------------------
d-222-222-222-222-555-555-000-000-----------x1-----------------------------
a-222-222-222-222-555-555-000-000------------------------------------------
d-222-222-222-222-555-555-000-000------------------------------------------
pm... ... ... ... ... ... ... ...
[ Tab from: http://www.guitartabs.cc/tabs/s/sum_41/hooch_tab_ver_5.html ]
e--------------------------------------------------------------------------
b--------------------------------------------------------------------------
g--------------------------------------------------------------------------
d-222-222-222-222-55555555-00000000---------x1-----------------------------
a-222-222-222-222-55555555-00000000----------------------------------------
d-222-222-222-222-55555555-00000000----------------------------------------

chorus.

e--------------------------------------------------------------------------
b--------------------------------------------------------------------------
g--------12-------12-------------------------------------------------------
d---2--0--x--2--0--x-55555555-00000000------x2-----------------------------
a---2--0-10--2--0-10-55555555-00000000-------------------------------------
d---2--0-----2--0----55555555-00000000-------------------------------------

repeat chorus

pre solo

e--------------------------------------------------------------------------
b--------------------------------------------------------------------------
g--------------------------------------------------------------------------
d-222p0-222p0-222p0-222p0-55555555-00000000-------x2-----------------------
a-222p0-222p0-222p0-222p0-55555555-00000000--------------------------------
d-222p0-222p0-222p0-222p0-55555555-00000000--------------------------------

solo

e-17b(18)r--17-15h17p15---------------12b-12b--------------------------------
b-----------------------15~--12h13p12---------15p13-12~-10~---10-12-10p8-7~--
g----------------------------------------------------------------------------
d----------------------------------------------------------------------------
a----------------------------------------------------------------------------
d----------------------------------------------------------------------------

cont'd
e----------------------------------------------------------------------------
b------------------------10h12p10h12-10p8p7h8--------------------------------
g-12p9-12--12p9-12--12p9------------------------12p9-9p7-0-2~----------------
d----------------------------------------------------------------------------
a----------------------------------------------------------------------------
d----------------------------------------------------------------------------

cont'd
e-----------------------------------14p12p10-14p12p10-14p12p10--15-17b(18)r-17
b------------2-3-5-7-10-12p10-------------------------------------------------
g--------2-4-----------------12-----------------------------------------------
d-0-2-4-5---------------------------------------------------------------------
a-----------------------------------------------------------------------------
d-----------------------------------------------------------------------------

cont'd
e-14-15p14-17p14-15p14-17p14-15p14-17p14-15p14-17p14--15-14-12-10~------------
b-----------------------------------------------------------------------------
g-----------------------------------------------------------------------------
d-----------------------------------------------------------------------------
a-----------------------------------------------------------------------------
d-----------------------------------------------------------------------------
 guitar 2
e----------------------------------------------------------------------------
b----------------------------------------------------------------------------
g-----------------------4-4-4-4-4-4--4-4-4-4---------------------------------
d-0-0-0-0-0-0--0-0-0-0--4-4-4-4-4-4--4-4-4-4--5-5-5-4-4-0---0-0-0-0----x4----
a-0-0-0-0-0-0--0-0-0-0--2-2-2-2-2-2--2-2-2-2--5-5-5-4-4-0---0-0-0-0----------
d-0-0-0-0-0-0--0-0-0-0------------------------5-5-5-4-4-0---0-0-0-0----------

outro

guitar 2

e----------------------------------------------------------------------------
b----------------------------------------------------------------------------
g----------------------------------------------------------------------------
d-5---5---5-5-4-0---0----0-4-9---9---9---9-9-7-0---0----0-4----x4------------
a-5---5---5-5-4-0---0----0-4-9---9---9---9-9-7-0---0----0-4------------------
d-5---5---5-5-4-0---0----0-4-0---9---9---9-9-7-0---0----0-4------------------

cont'd
end with
e-------------------
b-------------------
g-------------------
d-5---5---5-5-4-0---
a-5---5---5-5-4-0---
d-5---5---5-5-4-0---

well please rate my tab don't be harsh it's my 1st tab i have written
i think it is round 100% 2 99% correct please assure me.
Comments