Sum 41 - Hooch Chords & Tabs

 

Hooch Chords & Tabs

Sum 41 Chords & Tabs

Version: 4 Type: Tab 0 ratings
1 star 2 stars 3 stars 4 stars 5 stars
comments

Hooch Tab

This is as close as i could get it, i couldnt figure out whats played in the 2
parts with 2 guitars do i just kanda made sumpthin up that sounds good, the rest
im 99% sure is right

e--17b-15-12h15p12-------------------------------------------------
B------------------15--12-13-12-15b-12h13p12---------7-8-8h10p8-7--
G--------------------------------------------14--12--7-7--------7--
D------------------------------------------------------------------
A------------------------------------------------------------------
D------------------------------------------------------------------

e-------------------------------------------------------------------------
B--------12--------12-----------------------------------------------------
G--------12--------12--------12-14-14b-12h14p12---------------------------
D--12-14-----12-14-----12-14--------------------14-12-14-12---------------
A-----------------------------------------------------------14-12-10--12--
D-------------------------------------------------------------------------
[ Tab from: http://www.guitartabs.cc/tabs/s/sum_41/hooch_tab_ver_4.html ]
e----------------------------------------------
B----------------------------------------------
G-----------------------12-------12----14b-12--
D-----------12----12-14----12-14----12---------
A--10-12-14----14------------------------------
D----------------------------------------------

e--17p15p12----------12h15h17-17b--17--
B-----------15p14p12-------------------
G--------------------------------------
D--------------------------------------
A--------------------------------------
D--------------------------------------

e--14-15-14-14-17-14-14-15-14-14-17-14-14-15-14-14-17-14-14-15-14-14-17-14-14--
B------------------------------------------------------------------------------
G------------------------------------------------------------------------------
D------------------------------------------------------------------------------
A------------------------------------------------------------------------------
D------------------------------------------------------------------------------

e------------
B------------
G--10-8-8-7--
D--9--9-7-7--
A------------
E------------
Comments