Sum 41 - Hooch Chords & Tabs

 

Hooch Chords & Tabs

Sum 41 Chords & Tabs

Version: 3 Type: Tab 0 ratings
1 star 2 stars 3 stars 4 stars 5 stars
comments

Hooch Tab

 -------------------------------------------------------------------------------
			       Hooch - Sum 41
 -------------------------------------------------------------------------------
I'm 13 years old and this is my first tab, so please tell me what
you think about it in your comments!

Tuning: Standard

Guitar 1

e|17b19-17-15h17p15--------------------------------------------------------------|
B|------------------15~\-12-13-12-15b17b15-12h13p12------------------------------|
G|--------------------------------------------------14-12~\-14-16-14h16p14-11~\--|
D|-------------------------------------------------------------------------------|
A|-------------------------------------------------------------------------------|
E|-------------------------------------------------------------------------------|

Guitar 2

e|-------------------------------------------------------------------------------|
B|-------------------------------------------------------------------------------|
G|-------------------------------------------------------------------------------|
D|----------------------------------------------------------16-17-16h17p16-12~\--|
A|-------------------------------------------------------------------------------|
E|-------------------------------------------------------------------------------|

e|-------------------------------------------------------------------------------|
B|-------------------------------------------------------------------------------|
G|---------12-------12-------12h14-14b15b14-12h14p12-----------------------------|
D|---12h13----12h13----12h13-------------------------14-12-14-12-----------------|
A|14-------------------------------------------------------------14-12-10-10/12~\|
E|-------------------------------------------------------------------------------|
[ Tab from: http://www.guitartabs.cc/tabs/s/sum_41/hooch_tab_ver_3.html ]
e|------------------------------------------------15-14-12----------14-15-17-----|
B|---------------------------------------------------------15-13-12--------------|
G|---------------------12----12-14-12-14b15b14-12--------------------------------|
D|---------12----12-14----14-----------------------------------------------------|
A|12-13-14----14-----------------------------------------------------------------|
E|-------------------------------------------------------------------------------|

e|17b19b17~-14-(15-14-17-14-15-14-17-14-15-14-17-14-15-14)-17--------------------|
B|-------------------------------------------------------------------------------|
G|-------------------------------------------------------------------------------|
D|-------------------------------------------------------------------------------|
A|-------------------------------------------------------------------------------|
E|-------------------------------------------------------------------------------|

	       *The part in parenthesis is done with fast picking; 2 strokes 
		per note
Guitar 1

e|-------------------------------------------------------------------------------|
B|-------------------------------------------------------------------------------|
G|16-14-12-11r-------------------------------------------------------------------|
D|-------------------------------------------------------------------------------|
A|-------------------------------------------------------------------------------|
E|-------------------------------------------------------------------------------|

Guitar 2

e|-------------------------------------------------------------------------------|
B|-------------------------------------------------------------------------------|
G|-------------------------------------------------------------------------------|
D|17-16-14-12r-------------------------------------------------------------------|
A|-------------------------------------------------------------------------------|
E|-------------------------------------------------------------------------------|

-----
 Key
-----
| b  bend note
| ~  vibrato
| h  hammer on
| p  pull off
| /  slide up
| \  slide down
| r  let ring
===============================================================================
Comments