Sum 41 - Hooch Chords & Tabs

 

Hooch Chords & Tabs

Sum 41 Chords & Tabs

Version: 2 Type: Tab 0 ratings
1 star 2 stars 3 stars 4 stars 5 stars
comments

Hooch Tab

Artist    : Sum 41
Album     : Does This Look Infected
Track     : Hooch
Tabbed By : Mark Brown

Intro
Gtr 1 (dist)
e|-------------------------------------------------------------------------|
B|-------------------------------------------------------------------------|
G|-------------------------------------------------------------------------|
D|-------------------------------------------------------------------------|
A|-------------------------------------------------------------------------|
D|--2--2--2--0--2--2--2--0--2--2--2--0--2--2--2--0--5-5-5-5-5--0-0-0-0-0---|

Gtr 2 (dist)
e|-------------------------------------------------------------------------|
B|-------------------------------------------------------------------------|
G|-------------------------------------------------------------------------|
D|-------------------------------------------------------------------------|
A|-------------------------------------------------------------------------|
D|------------------------------------------------------------------x-\-\-\|

e|-------------------------------------------------------------------------|
B|-------------------------------------------------------------------------|
G|-------------------------------------------------------------------------|
D|-------------------------------------------------------------------------|
A|-------------------------------------------------------------------------|
D|--2--2--2--0--2--2--2--0--2--2--2--0--2--2--2--0--5-5-5-5-5--0-0-0-0-0---|

e|-------------------------------------------------------------------------|
B|-------------------------------------------------------------------------|
G|-------------------------------------------------------------------------|
D|-------------------------------------------------------------------------|
A|------------------------------------------------x-\-\-\-\-\-\-\-\-\-\-\--|
D|------------------------------------------------x--\-\-\-\-\-\-\-\-\-\-\-|

Main Riff
Gtrs 1&2
e|------------------------------------------------------------------------|
B|------------------------------------------------------------------------|
G|------------------------------------------------------------------------|
D|------------------------------------------------------------------------|
A|--2--2--2--0--2--2--2--0--2--2--2--0--2--2--2--0--5-5-5-5-5-0-0-0-0-0---|
D|--2--2--2--0--2--2--2--0--2--2--2--0--2--2--2--0--5-5-5-5-5-0-0-0-0-0---|

Verse
Gtr 1
     p.m     p.m   p.m     p.m  p.m-----------------------------|
e|----------------------------------------------------------------|
B|----------------------------------------------------------------|
G|----------------------------------------------------------------|
D|--2------2------2------2----------------------------------------|
A|--2-2-2--2-2-2--2-2-2--2-2-2--5-5-5-5-5-5-5-5--0-0-0-0-0-0-0-0--|
D|--2-2-2--2-2-2--2-2-2--2-2-2--5-5-5-5-5-5-5-5--0-0-0-0-0-0-0-0--|

     p.m     p.m   p.m     p.m    p.m   p.m    p.m     p.m
e|---------------------------------------------------------------|
B|---------------------------------------------------------------|
G|---------------------------------------------------------------|
D|--2------2------2------2------5------5------0------0-----------|
A|--2-2-2--2-2-2--2-2-2--2-2-2--5-5-5--5-5-5--0-0-0--0-0-0-------|
D|--2-2-2--2-2-2--2-2-2--2-2-2--5-5-5--5-5-5--0-0-0--0-0-0-------|

     p.m    p.m     p.m    p.m 
e|--------------------------------------------------------------|
B|--------------------------------------------------------------|
G|--------------------------------------------------------------|
D|--2------2------2------2--------------------------------------|
A|--2-2-2--2-2-2--2-2-2--2-2-2--5-5-5-5-5-5-5--0-0-0-0-0-0-0----|
D|--2-2-2--2-2-2--2-2-2--2-2-2--5-5-5-5-5-5-5--0-0-0-0-0-0-0----|

Chorus
Gts 1&2
e|---------------------------------------------------------------|
B|---------------------------------------------------------------|
G|---------x--12-\----------x-12--\------------------------------|
D|---------x---x------------x--x---------------------------------|
A|--2--0---x--10-\---2--0---x-10--\---5-5-5-5-5-5-5-5-5-5-5-5-5--|
D|--2--0-------------2--0-------------5-5-5-5-5-5-4-4-4-4-4-4-4--|

e|-----------------------------------------------------------------------|
B|-----------------------------------------------------------------------|
G|---------x--12--\---------x--12--\-------------------------------------|
D|---------x---x------------x---x-----5-5-5-5-5-5-5-5--------------------|
A|--2--0---x--10--\--2--0---x--10--\--3-3-3-3-3-3-3-3--0-0-0-0-0-0-0-0---|
D|--2--0-------------2--0------------------------------0-0-0-0-0-0-0-0---|

Verse
Gtr 1
     p.m     p.m   p.m     p.m  p.m-----------------------------|
e|----------------------------------------------------------------|
B|----------------------------------------------------------------|
G|----------------------------------------------------------------|
D|--2------2------2------2----------------------------------------|
A|--2-2-2--2-2-2--2-2-2--2-2-2--5-5-5-5-5-5-5-5--0-0-0-0-0-0-0-0--|
D|--2-2-2--2-2-2--2-2-2--2-2-2--5-5-5-5-5-5-5-5--0-0-0-0-0-0-0-0--|

     p.m     p.m   p.m     p.m    p.m   p.m    p.m     p.m
e|---------------------------------------------------------------|
B|---------------------------------------------------------------|
G|---------------------------------------------------------------|
D|--2------2------2------2------5------5------0------0-----------|
A|--2-2-2--2-2-2--2-2-2--2-2-2--5-5-5--5-5-5--0-0-0--0-0-0-------|
D|--2-2-2--2-2-2--2-2-2--2-2-2--5-5-5--5-5-5--0-0-0--0-0-0-------|
[ Tab from: http://www.guitartabs.cc/tabs/s/sum_41/hooch_tab_ver_2.html ]
     p.m    p.m     p.m    p.m 
e|--------------------------------------------------------------|
B|--------------------------------------------------------------|
G|--------------------------------------------------------------|
D|--2------2------2------2--------------------------------------|
A|--2-2-2--2-2-2--2-2-2--2-2-2--5-5-5-5-5-5-5--0-0-0-0-0-0-0----|
D|--2-2-2--2-2-2--2-2-2--2-2-2--5-5-5-5-5-5-5--0-0-0-0-0-0-0----|

Chorus
Gts 1&2
e|---------------------------------------------------------------|
B|---------------------------------------------------------------|
G|---------x--12-\----------x-12--\------------------------------|
D|---------x---x------------x--x---------------------------------|
A|--2--0---x--10-\---2--0---x-10--\---5-5-5-5-5-5-5-5-5-5-5-5-5--|
D|--2--0-------------2--0-------------5-5-5-5-5-5-4-4-4-4-4-4-4--|

e|-----------------------------------------------------------------------|
B|-----------------------------------------------------------------------|
G|---------x--12--\---------x--12--\-------------------------------------|
D|---------x---x------------x---x-----5-5-5-5-5-5-5-5--------------------|
A|--2--0---x--10--\--2--0---x--10--\--3-3-3-3-3-3-3-3--0-0-0-0-0-0-0-0---|
D|--2--0-------------2--0------------------------------0-0-0-0-0-0-0-0---|

Main Riff
Gtrs 1&2
e|------------------------------------------------------------------------|
B|------------------------------------------------------------------------|
G|------------------------------------------------------------------------|
D|------------------------------------------------------------------------|
A|--2--2--2--0--2--2--2--0--2--2--2--0--2--2--2--0--5-5-5-5-5-0-0-0-0-0---|
D|--2--2--2--0--2--2--2--0--2--2--2--0--2--2--2--0--5-5-5-5-5-0-0-0-0-0---|

                              Tremolo Pick ....................
e|-----------------------------------------------------------------|
B|-----------------------------------------------------------------|
G|-----------------------------------------------------------------|
D|-----------------------------------------------------------------|
A|--2--2--2--0--2--2--2--0-----------------------------------------|
D|--2--2--2--0--2--2--2--0--2//\/\/\/\/\/\/\/\/\/\/\/\/\/\/\/\/----|

Guitar Solo
Gtr1

e|---17b(19)r-17-15h17p15---------------------------------------------|
B|------------------------15~~~~--12--15--12--15b(17)r15--12h15p12----|
G|--------------------------------------------------------------------|
D|--------------------------------------------------------------------|
A|--------------------------------------------------------------------|
D|--------------------------------------------------------------------|

Solo
Gtr 2
e|------------------------------------------------------------|
B|------------------------------------------------------------|
G|------------------------------------------------------------|
D|------------------------------------------------------------|
A|----5--5--7---0-----9--9--9--9--5--5--5--5------------------|
D|----4--5--7---0-----9--9--9--9--5--5--5--5------------------|


e|---------------------------------------------------------------------|
B|---------------------------------------------------------------------|
G|--14~~--12~~--------14--16--14h16p14-----------------12~--------12~--|
D|--------------------------------------16~~~----12h14------12h14------|
A|---------------------------------------------------------------------|
D|---------------------------------------------------------------------|

e|-----------------------------------------------------------------|
B|-----------------------------------------------------------------|
G|--------12~-14b(16)r14-12hp14p12---------------------------------|
D|--12h14--------------------------14--12--14--12------------------|
A|-------------------------------------------------14--12--14--12~-|
D|------------------------------------------------------------|

e|------------------------------------------------------------------|
B|------------------------------------------------------------------|
G|--------------------------------------12--14--12--14--14b(15)r14~-|
D|----------------------12--14--12--14------------------------------|
A|-12---12--14--12--14----------------------------------------------|
D|------------------------------------------------------------------|

                                              tremolo Pick ..............
e|--15h17p15----------15hp17-17b(19)r17p15~~-17/\/\/\15\\/\/\17\/\/\/15--|
B|-----------15h17p15----------------------------------------------------|
G|-----------------------------------------------------------------------|
D|-----------------------------------------------------------------------|
A|-----------------------------------------------------------------------|
D|-----------------------------------------------------------------------|
........................................
e|---17\/\/\/\15\/\/\/\/17\/\/\/\15\/\/\--------------------------------|
B|----------------------------------------------------------------------|
G|----------------------------------------16--14--12--11~~~~~~~~--------|
D|----------------------------------------------------------------------|
A|----------------------------------------------------------------------|
D|----------------------------------------------------------------------|

Outro
Gtrs 1&2 (slight dist)
e|----------------------------------------------------------------|
B|----------------------------------------------------------------|
G|----------------------------------------------------------------|
D|--0-------------5-----5----5------------------------------------|
A|--0-------------5-----5----5---5--5--4---0----------0--------0--|
D|--0-------------5-----5----5---5--5--4---0----------0--------0--|

e|---------------------------------------------------------------|
B|---------------------------------------------------------------|
G|---------------------------------------------------------------|
D|--------4---4---4--4--4----------------------------------------|
A|----4---2---2---2--2--2---0----0--0--0----5---5---5-5--5--0----|
D|----4---------------------0----0--0--0----5---5---5-5--5--0----|
Comments