Sum 41 - Hooch Chords & Tabs

 

Hooch Chords & Tabs

Sum 41 Chords & Tabs

Version: 1 Type: Tab 1 rating
1 star 2 stars 3 stars 4 stars 5 stars
comments

Hooch Tab

   
Name: Hooch
Artists: SUM 41
CD: Does This Look Infected (Buy it you cheap bastard!)
Tabbed By: David Huzyk (Babaca)

Ok, this tab isnt fully complete. theres a few lead riffs missing in
 the outro i couldnt get because there faint and there are many of 
them.  I was just in my basement playing around with my guitar when i 
started writing a song that sounded farmiliar. I realized it was hooch 
by SUM 41, so i started tabbing the rest. So heres what I got so far, 
its not 100% but its a good start.

Drop D Tuning

Guitar 1 prominant guitar (means louder than guitar 2)

INTRO
Guitar 1
|------------------------------------------------------------------
|------------------------------------------------------------------
|------------------------------------------------------------------X2
|------------------------------------------------------------------
|------------------------------------------------------------------
|-2-2-2p0--2-2-2p0--2-2-2p0--2-2-2--5-5-5-5-5-5-5--0-0-0-0-0-0-0-0-

Guitar 2 (waits till guitar 1 plays above riff once)
|---
|---
|---
|-2- lets chord ring, then
|-2- pick scrapes
|-2-

THEN
Guitar 1&2
|--------------------------------------------------------------------
|--------------------------------------------------------------------
|--------------------------------------------------------------------X2 
|-2-2-2p0--2-2-2p0--2-2-2p0--2-2-2p0--5-5-5-5-5-5-5--0-0-0-0-0-0-0-0- 
|-2-2-2p0--2-2-2p0--2-2-2p0--2-2-2p0--5-5-5-5-5-5-5--0-0-0-0-0-0-0-0-
|-2-2-2p0--2-2-2p0--2-2-2p0--2-2-2p0--5-5-5-5-5-5-5--0-0-0-0-0-0-0-0-


VERSE
Guitar 1
|--------------------------------------------------------------
|--------------------------------------------------------------
|-------------------------------------------------------------- X2
|-2-2-2--2-2-2--2-2-2--2-2-2--5-5-5-5-5-5-5-5--0-0-0-0-0-0-0-0-
|-2-2-2--2-2-2--2-2-2--2-2-2--5-5-5-5-5-5-5-5--0-0-0-0-0-0-0-0-
|-2-2-2--2-2-2--2-2-2--2-2-2--5-5-5-5-5-5-5-5--0-0-0-0-0-0-0-0-
pm  . .    . .    . .    . .  . . . . . . . .  . . . . . . . .

THEN
Guitar 1
|--------------------------------------------------------
|--------------------------------------------------------
|-------------------------------------------------------- X1
|-2-2-2--2-2-2--2-2-2--2-2-2--5-5-5--5-5-5--0-0-0--0-0-0-
|-2-2-2--2-2-2--2-2-2--2-2-2--5-5-5--5-5-5--0-0-0--0-0-0-
|-2-2-2--2-2-2--2-2-2--2-2-2--5-5-5--5-5-5--0-0-0--0-0-0-
pm  . .    . .    . .    . .    . .    . .    . .    . .

|--------------------------------------------------------------
|--------------------------------------------------------------
|-------------------------------------------------------------- X1
|-2-2-2--2-2-2--2-2-2--2-2-2--5-5-5-5-5-5-5-5--0-0-0-0-0-0-0-0-
|-2-2-2--2-2-2--2-2-2--2-2-2--5-5-5-5-5-5-5-5--0-0-0-0-0-0-0-0-
|-2-2-2--2-2-2--2-2-2--2-2-2--5-5-5-5-5-5-5-5--0-0-0-0-0-0-0-0-
pm  . .    . .    . .    . .  . . . . . . . .  . . . . . . . .


CHORUS
Guitar 1
|----------------------------------------------------------
|----------------------------------------------------------
|--------12----------12------------------------------------ X2
|-2-2--x-x----2-2--x-x----5-5-5-5-5-5-5-5--0-0-0-0-0-0-0-0-
|-2-2--x-10---2-2--x-10---5-5-5-5-5-5-5-5--0-0-0-0-0-0-0-0-
|-2-2--x------2-2--x------5-5-5-5-5-5-5-5--0-0-0-0-0-0-0-0-
[ Tab from: http://www.guitartabs.cc/tabs/s/sum_41/hooch_tab.html ]
Guitar 2
|----------------------------------------------------------
|----------------------------------------------------------
|---------------------------------------------------------- X2
|-2-2-------0-2-2---------5-5-5-5-5-5-5-5--7-7-7-7-7-7-7-7-
|-2-2-------0-2-2---------5-5-5-5-5-5-5-5--0-0-0-0-0-0-0-0-
|-2-2-------0-2-2---------5-5-5-5-5-5-5-5--0-0-0-0-0-0-0-0-


(play verse again)

(play chorus again twice)


PRE SOLO
Guitar 1&2
|-------------------------------------------------------------------
|-------------------------------------------------------------------
|-------------------------------------------------------------------
|-2-2-2p0-2-2-2p0-2-2-2p0-2-2-2p0--5-5-5-5-5-5-5-5--0-0-0-0-0-0-0-0-X2
|-2-2-2p0-2-2-2p0-2-2-2p0-2-2-2p0--5-5-5-5-5-5-5-5--0-0-0-0-0-0-0-0-
|-2-2-2p0-2-2-2p0-2-2-2p0-2-2-2p0--5-5-5-5-5-5-5-5--0-0-0-0-0-0-0-0-


SOLO 
Guitar 1
|-17b(18)r--17-15h17p15--------------12b-12b----------------------------
|-----------------------15--12h13p12---------15p13-12-10---10-12-10p8-7-
|-----------------------------------------------------------------------
|-----------------------------------------------------------------------
|-----------------------------------------------------------------------
|-----------------------------------------------------------------------

cont'd
|------------------------------------------------------------
|------------------------10h12p10h12-10p8p7h8----------------
|-12p9-12--12p9-12--12p9------------------------12p9-9p7-0-2-
|------------------------------------------------------------
|------------------------------------------------------------
|------------------------------------------------------------

cont'd
|----------------------------------14p12p10-14p12p10-14p12p10--15-17b(18)r-17-
|-----------2-3-5-7-8-10-12p10------------------------------------------------
|-------2-4-------------------12----------------------------------------------
|0-2-4-5----------------------------------------------------------------------
|-----------------------------------------------------------------------------
|-----------------------------------------------------------------------------

cont'd
|14-15p14-17p14-15p14-17p14-15p14-17p14-15p14-17p14--15-14-12-10-
|----------------------------------------------------------------
|----------------------------------------------------------------
|----------------------------------------------------------------
|----------------------------------------------------------------
|----------------------------------------------------------------

Guitar 2
|------------------------------------------------------------------
|------------------------------------------------------------------
|-----------------------4-4-4-4-4-4--4-4-4-4----------------------- X4
|-0-0-0-0-0-0--0-0-0-0--4-4-4-4-4-4--4-4-4-4--5-5-5-4-4-0--0-0-0-0-
|-0-0-0-0-0-0--0-0-0-0--2-2-2-2-2-2--2-2-2-2--5-5-5-4-4-0--0-0-0-0-
|-0-0-0-0-0-0--0-0-0-0------------------------5-5-5-4-4-0--0-0-0-0-


OUTRO
Guitar 1 (dont have yet)

Guitar 2
|-------------------------------------------------------
|-------------------------------------------------------
|------------------------------------------------------- X4
|-5---5---5-5-4-0---0----0-4-9---9---9-9-7-0---0----0-4-
|-5---5---5-5-4-0---0----0-4-9---9---9-9-7-0---0----0-4-
|-5---5---5-5-4-0---0----0-4-9---9---9-9-7-0---0----0-4-

cont'd
end with:
|-----------------
|-----------------
|-----------------
|-5---5---5-5-4-0-
|-5---5---5-5-4-0-
|-5---5---5-5-4-0-

And thats it! Its not 100%, buts its pretty d@mn close. and like i
said, i dont have the lead guitar during the outro cause there are
too many riffs and there too quiet to get right. Also buy there cd,
 its amazing! Any questions/concerns etc. e-mail me at 
Babaca_WIN_69@hotmail.com
Comments