Sum 41 - Hooch Chords & Tabs

 

Hooch Chords & Tabs

Sum 41 Chords & Tabs

Version: 1 Type: Bass Tab 0 ratings
1 star 2 stars 3 stars 4 stars 5 stars
comments

Hooch Bass Tab

Artist: Sum 41
Album: Does This Look Infected?
Song: Hooch
Tabbed by: Eric McKay

Drop D Tuning

Another great song off their new album. Im pretty sure this is correct.
If you have any problems, email me at iam_canadian_ehh@hotmail.com
Please Rate This Tab!!!

Guitar Intro then...

Intro
G|---------------------------------------------------------------------|
D|---------------------------------------------------------------------|
A|---------------------------------------------------------------------|
D|-2-2-2p0--2-2-2p0--2-2-2p0--2-2-2p0--5-5-5-5-5-5-5-5-0-0-0-0-0-0-0-0-| x2
[ Tab from: http://www.guitartabs.cc/tabs/s/sum_41/hooch_btab.html ]
Verse
G|---------------------------------------------------------------------|
D|---------------------------------------------------------------------|
A|---------------------------------------------------------------------|
D|-0h2-2-2--0h2-2-2--0h2-2-2--0h2-2-2--5-5-5-5-5-5-5-5-0-0-0-0-0-0-0-0-| x4

Chorus
G|--------------------------------------------|
D|--------------------------------------------|
A|--------------------------------------------|
D|-2p0--2p0-0-5-5-5-5-5-5-5-5-4-4-4-4-4-4-4-4-| x2

Verse
Chorus x2
Intro

Interlude
G|------------------------------------------|
D|------------------------------------------|
A|------------------------------------------|
D|-2-4-5-0~-0-0-5-5-5-5-5--5--4-4-4-4-4--4--| x4

G|----------|
D|----------|
A|----------|
D|-2-4-5-0~-| 

G|-----------------------------------------------------|
D|-----------------------------------------------------|
A|-----------------------------------------------------|
D|-5~--5~--5-5-4-0~--0~--0-4-9~--9~--9-9-7-0~--0~--0-4-| x4

G|------------------|
D|------------------|
A|------------------|
D|-5~--5~--5-5-4-0~-|
Comments