Sum 41 - Hell Song Chords & Tabs

 

Hell Song Chords & Tabs

Sum 41 Chords & Tabs

Version: 9 Type: Tab 0 ratings
1 star 2 stars 3 stars 4 stars 5 stars
comments

Hell Song Tab

This is , I think, the first track on the New album - Does this look infected. I
heard it on the Sum41 website, www.sum41.com and loved it. I recommend you hear
and learn this.

Mattius

h- hammer on
p - pull off
b - bend
r - release

Intro - Guitar 1
---------------------------------------------
---------------------------------------------
---------------------------------------------
---------------------------------------2-1---
-------4-6---------4-6--------4-6----------4-
---4-7-----7---0-7-----7--7-7-----7--2-------

Intro - Guitar 2 (comes in after guitar 1 plays through
once)Work out the strumming for yourself - its very 
easy
---------------------------------------------
---------------------------------------------
--------------------4------------------------
-------6-----2------4----4-------------------
-------6-----2------2----4-------------------
-------4-----0-----------2-------------------

Verse -palm muted
---------------------------------------------
---------------------------------------------
-----------------4---------------------------
-----6------2----4----4----------------------
-----6------2----2----4----------------------
-----4------0---------2----------------------

Interlude - with verse chords over top
---------------------------------------------
---------------------------------------------
---------------------------------------------
---------------------------------------2-1---
-------4-6---------4-6--------4-6----------4-
---4-7-----7---0-7-----7--7-7-----7--2-------

Chorus (same as verse, different strum)
------------------------------------------------
------------------------------------------------
-----------------4------------------------------
------6-----2----4----4-------------------------
------6-----2----2----4-------------------------
------4-----0---------2-------------------------
[ Tab from: http://www.guitartabs.cc/tabs/s/sum_41/hell_song_tab_ver_9.html ]
Solo - its not perfect, but enough to give you a lead
------------------------------------------------
--9-9-9-7---9-9-9-7---7-7-7---------------------
----------9---------9-------9-8-6-9h11p9-8h10p96
------------------------------------------------
------------------------------------------------
------------------------------------------------

------------------------------------------------
----------7-9-7-----7---------------------------
6h8p6-8-9-------9-8-----------------------------
------------------------7h8p7h8p7h8p7h8p7h8p7h8-
------------------------------------------------
------------------------------------------------

------------------------------------------------
------------------------------------------------
--9h10p9h10p9h10p9h10p9h10p9h10-10h11p10h11p10h-
------------------------------------------------
------------------------------------------------
------------------------------------------------

------------------------------------------------
-----------------------7h8p7h8p7h8p7h8p7h8p7h8--
--11p10h11p10h11p10h11--------------------------
------------------------------------------------
------------------------------------------------
------------------------------------------------

----------------------------------------------
---9-9/11-11/12-12/14---16-16-p14-------------
----------------------------------16p13-------
----------------------------------------------
----------------------------------------------
----------------------------------------------


----------------------------------------------
-16-16-p14-------16b18r16p14----16b18r16p14---
-----------16p13-------------16-------------16
----------------------------------------------
----------------------------------------------
----------------------------------------------


---------------------------------------------
-----------------------------------9-7-9-----
--16-15-15-13-13----13-----------------------
-----------------16----16-14-13--------------
--------------------------------14-----------
---------------------------------------------

And thats it, have fun.
Comments