Sum 41 - Hell Song Chords & Tabs

 

Hell Song Chords & Tabs

Sum 41 Chords & Tabs

Version: 7 Type: Tab 18 ratings
1 star 2 stars 3 stars 4 stars 5 stars
comments

Hell Song Tab

   
This sounds exactly right to me so enjoy:


h- = hammer on

p- = Pull off

Intro (play 3 times, once without chords, twice with. Chords same as Verse 1):

E]---------------------------------------------
B]---------------------------------------------
G]---------------------------------------------  Listen to the song to get the rythm.
D]-------1---------1---------1-----2-2-1-1-----
A]---2-4---2---2-4---2-2-2-4---2-----------4-4-
E]-4---------0-------------------2-------------

Verse 1 (play 4 times, twice palm muted, twice with every 3rd chord not.
         Listen to the song and you'll understand :-p):

E]-----------------------------------------------------------------
B]-----------------------------------------------------------------
G]-5-5-5-5-5-5-5-5-1-1-1-1-1-1-1-1-8-8-8-8-8-8-8-8-3-3-3-3-3-3-3-3-
D]-6-6-6-6-6-6-6-6-2-2-2-2-2-2-2-2-9-9-9-9-9-9-9-9-4-4-4-4-4-4-4-4-
A]-6-6-6-6-6-6-6-6-2-2-2-2-2-2-2-2-9-9-9-9-9-9-9-9-4-4-4-4-4-4-4-4-
E]-4-4-4-4-4-4-4-4-0-0-0-0-0-0-0-0-7-7-7-7-7-7-7-7-2-2-2-2-2-2-2-2-

Intro (as above) ^ (play twice with chords)

Verse 2 (as above) ^

Chorus:

Same as verses (^) but not muted (Play 4 times)

Solo (this is the easy way to play it):

E]-4-4-4-2---4-4-4-4-4-2---2-2-2-2-0---------------------------0-----------
B]---------4-------------4-----------4-2-4-h5-p4-2-h4-p2-0-2-4---4-2-0-2-4-
G]-------------------------------------------------------------------------
D]-------------------------------------------------------------------------
A]-------------------------------------------------------------------------
E]-------------------------------------------------------------------------...

                                                      E]---0-2-4-2-0---0-2-
                                                      B]-4-----------4-----
                                Guitar Channel 2      G]-------------------
                               (Played with above)    D]-------------------
                                                      A]-------------------
                                                      E]-------------------
[ Tab from: http://www.guitartabs.cc/tabs/s/sum_41/hell_song_tab_ver_7.html ]
...E]-----------------------------------------------------------------------------------------------
   B]-0-h2-p0-h2-p0-h2-p0-h2-h4-p2-h4-p2-h4-p2-h4-p2-h5-p4-h5-p4-h5-p4-h5-p4-h7-p4-h7-p4-h7-p4-h7-p4
   G]-----------------------------------------------------------------------------------------------
   D]-----------------------------------------------------------------------------------------------
   A]-----------------------------------------------------------------------------------------------
   E]-----------------------------------------------------------------------------------------------

E]-4-4-6-6-7-7--9-9-7---11-11-11-9-7---9-11-11-9-7-9-7-11-14-11----------11-14-11-------
B]--------------------9--------------9--------------------------14-12-12----------14-12-
G]--------------------------------------------------------------------------------------
D]--------------------------------------------------------------------------------------
A]--------------------------------------------------------------------------------------
E]--------------------------------------------------------------------------------------

E]-------------------------------------------------------------
B]-12-11-11-12-11----------------------------------------------
G]----------------11-13-11-------------------------------5-3-5-
D]-------------------------13-11-11----------11----------6-4-6-
A]----------------------------------14-14-14----14-14-14-6-4-6-
E]-------------------------------------------------------4-2-4-

Verse 3 (As Above) ^(play twice through, hold the last chord)

Chorus (play 4times as above ^, with riff shown below in last bar of each repetition)
       (listen to the song and you'll understand)

Riff:

E]---------------------------
B]---------------------------
G]-1-------------------------
D]---4-2-1-------------------
A]---------4-2---------------
E]-------------2-h4----------

Intro (play 4 times through with chords, hold last chord)





I'm pretty sure that's all right...

Alx ;-)
Comments