Sum 41 - Hell Song Chords & Tabs

 

Hell Song Chords & Tabs

Sum 41 Chords & Tabs

Version: 4 Type: Tab 1 rating
1 star 2 stars 3 stars 4 stars 5 stars
comments

Hell Song Tab

 tabbed by kevinhannah182@hotmail.com
hell song
this is a good song
E|-----------------|------------------|-----------------|--------------------|
B|-----------------|------------------|-----------------|--------------------|
G|-----------------|------------------|-----------------|--------------------|
D|-----------1-----|-----------1------|-----------1-----|-----2-2--1-1-------|
A|-----2--4-----2--|-----2--4------2--|--2--2--4-----2--|---------------4-4--|
E|--4--------------|--0---------------|-----------------|--2-----------------|

E|----------------------------------------------------------------------|
B|----------------------------------------------------------------------|
G|------------------------------------4-4-4-4-4-4-4-4-------------------|
D|--6-6-6-6-6-6-6-6--2-2-2-2-2-2-2-2--4-4-4-4-4-4-4-4--4-4-4-4-4-4-4-4--|
A|--6-6-6-6-6-6-6-6--2-2-2-2-2-2-2-2--2-2-2-2-2-2-2-2--4-4-4-4-4-4-4-4--|
E|--4-4-4-4-4-4-4-4--0-0-0-0-0-0-0-0-------------------2-2-2-2-2-2-2-2--|

E|---------------------------------------------------------------------------|
B|---------------------------------------------------------------------------|
G|------------------------------------4-4-4-4-4-4-4-4------------------------|
D|--6-6-6-6-6-6-6-6--2-2-2-2-2-2-2-2--4-4-4-4-4-4-4-4--4-4--4--4-4--4--4--4--|
A|--6-6-6-6-6-6-6-6--2-2-2-2-2-2-2-2--2-2-2-2-2-2-2-2--4-4--4--4-4--4--4--4--|
E|--4-4-4-4-4-4-4-4--0-0-0-0-0-0-0-0-------------------2-2--2--2-2--2--2--2--|

E|---------------------------------------------------------------------------|
B|---------------------------------------------------------------------------|
G|------------------------------------4-4--4--4-4--4-------------------------|
D|--6-6--6--6-6--6---2-2--2--2-2--2---4-4--4--4-4--4---4-4--4--4-4--4--4--4--|
A|--6-6--6--6-6--6---2-2--2--2-2--2---2-2--2--2-2--2---4-4--4--4-4--4--4--4--|
E|--4-4--4--4-4--4---0-0--0--0-0--0--------------------2-2--2--2-2--2--2--2--|

E|-------------------------------------------------------------------------|
B|-------------------------------------------------------------------------|
G|--------------------9-9-9-9-9-9-9-9-9------------------------------------|
D|--6-6-6-6-6-6-6-6---9-9-9-9-9-9-9-9-9--9-9-9-9-9-9-9-9--4-4-4-4-4-4-4-4--|
A|--6-6-6-6-6-6-6-6---7-7-7-7-7-7-7-7-7--9-9-9-9-9-9-9-9--4-4-4-4-4-4-4-4--|
E|--4-4-4-4-4-4-4-4----------------------7-7-7-7-7-7-7-7--2-2-2-2-2-2-2-2--|

E|-----------------------------------|
B|-----------------------------------|
G|-----------------------------------|
D|--6-6--4----6-6---6-6---6-6---6-6--|
A|--6-6--4----6-6---6-6---6-6---6-6--|
E|--4-4--2----4-4---4-4---4-4---4-4--|

E|----------------------------------------------------------------------|
B|---9---9-9-9------9--9-9-9-----7--7-7-7---5----------5----------------|
G|-11-----------8---11--------8---9------------8-6-8---6-8-4-6-3h4-3h4--|
D|----------------------------------------------------------------------|
A|----------------------------------------------------------------------|
E|----------------------------------------------------------------------|

E|-------------------------|
B|----------9--------------|
G|--8-9-11----11-9h8--8-9--|
D|-------------------------|
A|-------------------------|
E|-------------------------|

E|-------------------------------------------------|
B|-------------------------------------------------|
G|--4h6-p4-h6-p4-h6-p4-h6---6h8-p6-h8-p6-h8-p6-h8--|
D|-------------------------------------------------|
A|-------------------------------------------------|
E|-------------------------------------------------|
[ Tab from: http://www.guitartabs.cc/tabs/s/sum_41/hell_song_tab_ver_4.html ]
E|-----------------------------------------------------|
B|-----------------------------------------------------|
G|--8h9-p8-h9-p8-h9-p8-h9---9h11-p9-h11-p9-h11-p9-h11--|
D|-----------------------------------------------------|
A|-----------------------------------------------------|
E|-----------------------------------------------------|

E|-----------------------------------------------------|
B|--9---x-x---11---x-x---12---x-x---14-----------------|
G|-11^--x-x---13^--x-x---14^--x-x---16^p13-------------|
D|-----------------------------------------------------|
A|-----------------------------------------------------|
E|-----------------------------------------------------|

E|-----------------------------------------------------|
B|--14^-14^-14^-14^p12----12---14^-14^-14-12-14-12-----|
G|---------------------13------------------------------|
D|-----------------------------------------------------|
A|-----------------------------------------------------|
E|-----------------------------------------------------|

E|------14-----------------14--------------------------|
B|--14^----14^-14-12---14^----14^-14-12----------------|
G|-----------------------------------------------------|
D|-----------------------------------------------------|
A|-----------------------------------------------------|
E|-----------------------------------------------------|

E|-----------------------------------------------------|
B|--11-11-12-11----------------------------------------|
G|--------------11-13----11----------------------------|
D|--------------------13----11-------11-------11-------|
A|-----------------------------14-14----14-14----14~---|
E|-----------------------------------------------------|

E|---------------------------------------------------------------------------|
B|---------------------------------------------------------------------------|
G|------------------------------------4-4-4-4-4-4-4-4------------------------|
D|--6-6-6-6-6-6-6-6--2-2-2-2-2-2-2-2--4-4-4-4-4-4-4-4--4-4--4--4-4--4--4--4--|
A|--6-6-6-6-6-6-6-6--2-2-2-2-2-2-2-2--2-2-2-2-2-2-2-2--4-4--4--4-4--4--4--4--|
E|--4-4-4-4-4-4-4-4--0-0-0-0-0-0-0-0-------------------2-2--2--2-2--2--2--2--|

E|-----------------------------------------------------------------------------|
B|-----------------------------------------------------------------------------|
G|--------------------------------------4-4-4-4-4-4-4-4------------------------|
D|--6-x-6-6-x-6-6-x--2-x-2-2-x-2-2-x-2--4-4-4-4-4-4-4-4--4-4--4--4-4--4--4--4--|
A|--6-x-6-6-x-6-6-x--2-x-2-2-x-2-2-x-2--2-2-2-2-2-2-2-2--4-4--4--4-4--4--4--4--|
E|--4-x-4-4-x-4-4-x--0-x-0-0-x-0-0-x-0-------------------2-2--2--2-2--2--2--2--|

E|-------------------------------------------------------------------------|
B|-------------------------------------------------------------------------|
G|--------------------9-9-9-9-9-9-9-9-9------------------------------------|
D|--6-6-6-6-6-6-6-6---9-9-9-9-9-9-9-9-9--9-9-9-9-9-9-9-9--4-4-4-4-4-4-4-4--|
A|--6-6-6-6-6-6-6-6---7-7-7-7-7-7-7-7-7--9-9-9-9-9-9-9-9--4-4-4-4-4-4-4-4--|
E|--4-4-4-4-4-4-4-4----------------------7-7-7-7-7-7-7-7--2-2-2-2-2-2-2-2--|

E|--------------------------|
B|--------------------------|
G|--------------------------|
D|--4--2--------------------|
A|--------6--4--------------|
E|--------------7--6--2--4--|

E|-----------------|------------------|-----------------|--------------------|
B|-----------------|------------------|-----------------|--------------------|
G|-----------------|------------------|-----------------|--------------------|
D|-----------1-----|-----------1------|-----------1-----|-----2-2--1-1-------|
A|-----2--4-----2--|-----2--4------2--|--2--2--4-----2--|---------------4-4--|
E|--4--------------|--0---------------|-----------------|--2-----------------|

 yes!!!!! i did it if u want me to change it a bit send an email at kevinhannah182@hotmail.com
Comments