Sum 41 - Hell Song Chords & Tabs

 

Hell Song Chords & Tabs

Sum 41 Chords & Tabs

Version: 2 Type: Tab 1 rating
1 star 2 stars 3 stars 4 stars 5 stars
comments

Hell Song Tab

THE HELL SONG by SUM 41
tabed by: NICK
STANDARD TUNING

palm mute *

[INTRO]
e---------------------------------------------------------------
B---------------------------------------------------------------
G---------------------------------------------------------------
D--------1------------1------------1--------2-2-1-1-------------
A----2-4---2------2-4---2----2-2-4---2--------------4-4---------
E--4------------0-------------------------2---------------------

[VERSE 1]
e---------------------------------------------------------------
B---------------------------------------------------------------
G--------------------------44-4-444-4---------------------------
D--66-6-666-6--22-2-222-2--44-4-444-4--44-4-44-4-4-4------------
A--66-6-666-6--22-2-222-2--22-2-222-2--44-4-44-4-4-4------------
E--44-4-444-4--00-0-000-0--------------22-2-22-2-2-2------------
   **   ***    **   ***    **   ***    **   **   *
[CHORUS]
e---------------------------------------|-----------------------
B---------------------------------------|-----------------------
G---------------------444444------------|-----------------------
D--66-4-666666-222222-444444-444--------|-66--66--66--6---------
A--66-4-666666-222222-222222-444--------|-66--66--66--6---------
E--44-2-444444-000000--------222--------|-44--44--44--4---------
                                         end of chorus befor solo


on the solo some parts have bends so you have to bend the 
bottom note to reach the top note so they are exactly the 
same, like ont the starting, bend the 7 on the B string
to match the 4 on the e string.

[SOLO]
e--4-444444--x2-|------------------------------------------------
B--7-777777-----|--777-5-4---------------------------------------
G---------------|----------6--8h9p8h9-6h8p6h8-4h6p4h6------------
D---------------|------------------------------------------------
A---------------|------------------------------------------------
E---------------|------------------------------------------------
[ Tab from: http://www.guitartabs.cc/tabs/s/sum_41/hell_song_tab_ver_2.html ]
e---------------------------------------------------------------
B------4-5p4-----4------------------2h4p2h4p2h4p2h4-------------
G--4-6-------4-6----3h4p3h4p3h4p3h4-----------------------------
D---------------------------------------------------------------
A---------------------------------------------------------------
E---------------------------------------------------------------

e------------------------------------4--6-6---7--7---9--9-------
B--4h5p4h5p4h5p4h5-5h7p5h7p5h7p5h7---7--9-9--10-10--12-12-------
G---------------------------------------------------------------
D---------------------------------------------------------------
A---------------------------------------------------------------
E---------------------------------------------------------------

e--11-11-11-11-11---------11-11---------------------------------
B--14-14-14-14-14-12------14-14-12-14-12-14---------------------
G--------------------13-----------------------------------------
D---------------------------------------------------------------
A---------------------------------------------------------------
E---------------------------------------------------------------

e--11-14-11----------x2-|---------------------------------------
B--14----14-12--12------|--11-12-11h12p11----11-----------------
G-----------------------|-----------------13----13-11-----------
D-----------------------|-----------------------------11-13-11--
A-----------------------|---------------------------------------
E-----------------------|---------------------------------------

e---------------------------------------------------------------
B---------------------------------------------------------------
G------------------------13-11--13------------------------------
D-----11-9(ring)----------x--x---x------------------------------
A--14--------------------11--9--11------------------------------
E---------------------------------------------------------------

The go back and you will have to repeat the verses and intro and
other things.

If you want to request a Sum 41 Tab I will get it for ya.

elementnick@aol.com

Comments