Sum 41 - Hell Song Chords & Tabs

 

Hell Song Chords & Tabs

Sum 41 Chords & Tabs

Version: 16 Type: Tab 0 ratings
1 star 2 stars 3 stars 4 stars 5 stars
comments

Hell Song Tab

Band:Sum*41
Song:The Hell Song
Album:Does This Look Infected?

Key:
   ^=hard bend
   \=slide down
   /=slide up
 tr~=tremble pick
   *=hold bend
   ~=vibrato

   |-4---4-4-4--4^-----------------------------------------------------
   |-7----------7^\4--2/7---7-7-7--------------------------------------
   |-------------------------------9-8-6-----6--8h9p8--6h8p6--4h6p4\3--
   |-------------------------------------------------------------------
   |-------------------------------------------------------------------
   |-------------------------------------------------------------------
                                               tr~~~~~ tr~~~~~
   |---------------4---------------------------------------------------
   |---4---5---7-------7-----(7)\4---5---7\4-----3-(4)--4-(6)----4---6-
   |-------------------------------------------------------------------
   |-------------------------------------------------------------------
   |-------------------------------------------------------------------
   |-------------------------------------------------------------------
                                      tr~~~~~ tr~~~~~ tr~~~~~ tr~~~~~
   |-------------------------------------------------------------------
   |--4-----5---4----(4)\0----2----4\--3-(4)---4-(6)---6-(8)---8-(9)---
   |-------------------------------------------------------------------
   |-------------------------------------------------------------------
   |-------------------------------------------------------------------
   |-------------------------------------------------------------------
[ Tab from: http://www.guitartabs.cc/tabs/s/sum_41/hell_song_tab_ver_16.html ]
   |-------------------------------------------------------------------
   |-9^----11^--11^---12^---12^----14^---14^---------------------------
   |-11^---13^--13^---14^---14^----16^---16^--(16)--13--18^-(18)--18^--
   |-------------------------------------------------------------------
   |-------------------------------------------------------------------
   |-------------------------------------------------------------------
                                                          ********hold
   |-------------------------------------------------------------------
   |---------------------------------------------------------19--------
   |-18^--18^---18p16----16-18^----18^-(18)--16---18-16-18^-----18^-(18)
   |------------------18-----------------------------------------------
   |-------------------------------------------------------------------
   |-------------------------------------------------------------------
              ****************hold
   |-------------------------------------------------------------------
   |--------------------19---------------------------------------------
   |-16---16-18^---(18)-----18^--(18)--16--16\15---15h16--15/16--------
   |-------------------------------------------------------------16h18p
   |-------------------------------------------------------------------
   |-------------------------------------------------------------------
  
   |-------------------------------------------------------------------
   |-------------------------------------------------------------------
   |-------------------------------------------------------------------
   |16-----------------------------------------------------------------
   |----16h18-16/16-14/14-16/16-14/14-14/14-16/16-14/14-14--(14)~~~~~~~
   |----------------------------------------------------14-------------

   |-------------------------------------------------------------------
   |-------------------------------------------------------------------
   |-------------------------------------------------------------------1st
   |-------------------------------------------------------------------guitar
   |-------------------------------------------------------------------
   |--------------16-----14-----16-----(16)\---------------------------

   |-------------------------------------------------------------------
   |-------------------------------------------------------------------
   |-------------------------------------------------------------------2nd
   |-------------------------------------------------------------------guitar
   |-------------------------------------------------------------------
   |-(16)-----16-----14-----16-----(16)\-------------------------------


   This is kind of difficult to play,but if you practice it a lot it will
   start making the right noise after a while.

   Tabbed by:Cammy27@aol.com
Comments