Sum 41 - Hell Song Chords & Tabs

 

Hell Song Chords & Tabs

Sum 41 Chords & Tabs

Version: 12 Type: Tab 0 ratings
1 star 2 stars 3 stars 4 stars 5 stars
comments

Hell Song Tab

   
Artist: Sum 41
Song: The hell song
Album: does this look infected?
Tabbed by: Nick Allan
Email: ERG121_406@hotmail.com

This song is the first non single song that has been tabbed that i have found
on Sum 41's new album. This song is the first on the album and one of the best.
This tab is 100% correct apart from some parts in the lead but loads of distortion 
should sort that out.

any suggestions or corrects email me.

Drop D tuning.

intro Guitar 2 dist.

listen to cd for amount of times played.

E ---------------------------------------------------
B ---------------------------------------------------
G --------------------------------------------------- repeat 
D --------1------------1------------1----------------
A ---2--4---2-----2--4---2---2-2--4---2----77-66-44--
D -6------------2------------------------4-----------

intro guitar 1 dist. (comes in the second time guitar 2 plays his intro)

listen to cd for amount of times played and rhythm.

E ------------------------
B ------------------------
G ------4-----------------
D 6--2--4--4--------------
A 6--2--2--4--------------
D 6--2-----4--------------


Verse 1 Guitar and 2 dist.

listen to cd for rhythm.

   PM
E ------------                                                   
B ------------
G ------------             
D ------4----- Times 2    
A 6--2--2--4--
D 6--2-----4--

Then

pm but play the higher part of the chord open when you get to it.
E -------------------------
B -------------------------
G ------------------4------              
D ----6-----2-------4----4-  
A ----6-----2---2-2------4-
D 6-6---2-2----------4-4---



INTRO AGAIN


Verse 2 guitars 1 and 2

pm but play the higher part of the chord open when you get to it.
E -------------------------
B -------------------------
G ------------------4------              
D ----6-----2-------4----4-  
A ----6-----2---2-2------4-
D 6-6---2-2----------4-4---


chorus

E -------------------                                                   
B -------------------
G -------------4-----             
D 6-4---6---2--4--4-- Times 2 (i think)    
A 6-4---6---2--2--4--
D 6-4---6---2-----4--


breakdown

E ------
B ------
G ------
D -6-6-- 2 times
A -6-6--
D -6-6--


lead solo, i think this is right. Guitar 2 dist
[ Tab from: http://www.guitartabs.cc/tabs/s/sum_41/hell_song_tab_ver_12.html ]
E -----------------------------------------
B -7~999999--7~999999----------------------
G -----------------------------------------
D -----------------------------------------
A -----------------------------------------
D -----------------------------------------

E -----------------------------------------
B -4h5-2-2h4-0-0h2----24542524-24----------
G -----------------3-4--------4------------
D -----------------------------------------
A -----------------------------------------
D -----------------------------------------

E ------------------------------------------------------
B -------------2h4p2h4p2h4-4h5p4h5p4h5-5h7p5h7p5h7------
G -3h4p3h4p3h4------------------------------------------
D ------------------------------------------------------
A ------------------------------------------------------
D ------------------------------------------------------

E -4-66-77-997--11-11-11-11-11p9-----9-11-11b---9-------
B -4-66-77-997-7-----------------12-9---------12-12-----
G ------------------------------------------------------
D ------------------------------------------------------
A ------------------------------------------------------
D ------------------------------------------------------

E -11-14-11---------11-14-11---------------------------------
B ----14---14-12-14----14---14-12-12-11-11-12----------------
G --------------------------------------------11h13p11-13-11-
D -----------------------------------------------------------
A -----------------------------------------------------------
D -----------------------------------------------------------

E -----------------------------
B -----------------------------
G -----------------------------
D -11h13p11-9h11p9-9h11-9-9~---
A -----------------------------
D -----------------------------


After lead

E --------------
B --------------
G --------------
D 6------6--4--6~
A 6-HOLD-6--4--6~
D 6------6--4--6~


pm
E ------------                                                   
B ------------
G ------4-----             
D 6--2--4--4-- 2 times ( i think)    
A 6--2--2--4--
D 6--2-----4--





in the outro guitar 1 and 2 go back to the chorus.

chorus

E -------------------                                                   
B -------------------
G -------------5-----             
D 6-4----6--3--5--5-- 2 TIMES ( i think)    
A 6-4----6--3--3--5--
D 6-4----6--3-----5--


extra guitar that goes with the end chorus
guitar 2 dist.
E -----------
B -----------
G -----------
D -----------
A -11-9-8-6-4
D -----------


INTRO PLAYED AGAIN TO THE END OF THE SONG.
Comments