Sum 41 - Hell Song Chords & Tabs

 

Hell Song Chords & Tabs

Sum 41 Chords & Tabs

Version: 10 Type: Tab 0 ratings
1 star 2 stars 3 stars 4 stars 5 stars
comments

Hell Song Tab

   
Song: The Hell Song
Artist: Sum 41
Album: Does This Look Infected?
Tabbed by: Melissa N. aka Rocker_603

This is my first tab Iíve put out. sry it if sux -- at least I tried. Have a day.

Standard Tuning
P.M. = palm mute
_ = donít palm mute
p = pull off
h = hammer on 
\ = slide down
/ = slide up
. = staccato (cut short)
~ = vibrato (shake the string)

INTRO Ė- x3 (play just G.I first time through then play G.II w/ G.I)
(Guitar I)
|---------------------------------------------------------|
|---------------------------------------------------------|
|---------------------------------------------------------|
|---------------------------------------------------------|
|----2-4-6-2---2-4-6-2---2-4-6-2---7-7-6-6-4-4------------|
|--4---------2---------4---------2------------------------|
|(Guitar II) 						  |
| G#5		E5	   B5		F#5 (Rhythm fig.1)|
|---------------------------------------------------------|
|---------------------------------------------------------|
|---------------------------------------------------------|
|----------------------4-x8-------------------------------|
|--6-x8------2-x8------2---------4-x8---------------------|
|--4---------0-------------------2------------------------|

VERSE 1 -- P.M.
G#5			E5    B5	           F#5
Everybodyís got their problems. Everybody says the same
	    G#5				  E5	    B5
things to you. Itís just a matter how you solve them, and

and knowing how to change the
(Rhythm Fig. 2)
|---------------------------------------------------------|
|---------------------------------------------------------|
|---------------------------------------------------------|
|---------------------------------------------------------|
|---4-4-4-4-4-4-4-4-4-4-4-4-4-4---------------------------|
|---2-2-2-2-2-2-2-2-2-2-2-2-2-2---------------------------|
P.M.~~~~~~_~~~~~~~_~~~~~~~_~_~_|
   things youíve been through

G#5         E5		  B5		  F#5
I feel Iíve come to realize how fast life can be
	   G#5		  E5		     B5
compromised. Step back to see whatís going on, I canít
    F#5		        (INTRO)
believe this happened to you. This happened to you.
 
VERSE 2 Ė W/ Rhythm figure 2
G#5				E5	      B5
Itís just a problem that weíre faced with, am I not the
		F#5	      G#5		    E5
only one who hates to stand by. Complications ended first
	    B5					F#5
in this line, with all these pictures running through my
    G#5		E5		  B5		F#5
mind. Knowing endless consequences, I feel so useless in
    G#5		     E5		      B5	      F#5
this. Get back, step back, and as for me, I canít believe.


CHORUS -- Rhythm Fig. 1 
	  G#5	      E5		B5
A part of me wonít agree cause I donít know if itís for 
F#5 	    G#5	      E5	  B5	     F#5
sure. Suddenly, suddenly I donít feel so insecure. A part
   G#5	       E5		B5	         F#5
of me wonít agree cause I donít know if itís for sure.
     G#5	E5	   B5	       F#5
Suddenly, suddenly I donít feel so insecure anymore.
[ Tab from: http://www.guitartabs.cc/tabs/s/sum_41/hell_song_tab_ver_10.html ]
SOLO -- truth be told itísnít 100% correct
|---------------------------------------------------------|
|--------------------9-9-9-9-7-------9-9-9-9-7------------|
|------------------------------9\(8)-----------9\(8)------|
|---------------------------------------------------------|
|--6-6--6-6--6-6--6---------------------------------------|
|--4-4--4-4--4-4--4---------------------------------------|
   . .  . .  . .  .
|---------------------------------------------------------|
|--7-7-7-7-5----------------------------------------------|
|------------9\8-6-8/9h11p9\8h9p8-6--8-10-12-13-12-10\8-10|
|------------------------------------x-x--x--x--x--x-\x-x-|
|------------------------------------6-8--10-11-10-8-\6-8-|
|---------------------------------------------------------|

|---------------------------------------------------9-11--|
|----------------------9/11-11/12-12/14-14/16-14\12-------|
|-12-----------8~~-9~~------------------------------------|
|-x---9~~-11~~--------------------------------------------|
|-10------------------------------------------------------|
|---------------------------------------------------------|

|-11-11-11-11-9-7-9-11-11-9-7-9-7-9-11-14-14-11-9-7-9-11--|
|---------------------------------------------------------|
|---------------------------------------------------------|
|---------------------------------------------------------|
|---------------------------------------------------------|
|---------------------------------------------------------|

|-14-14-11-9----------------------------------------------|
|------------12-11-11-12-12-10-9-9-10-10-------10---------|
|----------------------------------------12-12----11-9-9--|
|---------------------------------------------------------|
|---------------------------------------------------------|
|---------------------------------------------------------|

|---------------------------------------------------------|
|---------------------------------------------------------|
|-11-9-8-8-9-6-6-8-6-4-4----------------------------------|
|---------------------------------------------------------|
|----------------------------------6\4/6\-----------------|
|----------------------------------4\2/4\-----------------|
			   ^ Let ring for a while
BRIDGE
G#5			E5    B5	           F#5
Everybodyís got their problems. Everybody says the same
	     G#5			  E5        B5
things to you. Itís just a matter how you solve them, what
			F#5
else are we supposed to do?

CHORUS
Fill
|---------------------------------------------------------|
|---------------------------------------------------------|
|---------------------------------------------------------|
|--6-4-2--------------------------------------------------|
|--------6-4----------------------------------------------|
|------------6-2-4----------------------------------------|

	  G#5	      E5		B5
A part of me wonít agree cause I donít know if itís for 
F#5 	    G#5	      E5	   B5	     F#5		
sure. Suddenly, suddenly I donít feel so insecure. A part
   G#5	       E5		B5		   F#5
of me wonít agree cause I donít know if itís for sure. 
      G#5	E5	    B5		F#5
Suddenly, suddenly I donít feel so insecure anymore.

ENDING -- I dunno what heís saying. Correct me if Iím wrong.
Thereís also a 2nd guitar in here but I donít feel like figuring it out.

G#5		E5			B5	F#5
And what are things that matter the most? Never end up
		G#5	      E5	       B5		
knowing how it goes. Now that itís going so bad, I donít
F#5			G#5	      E5
think I knew what I had. And what are things that matter
    B5	 	F#5		          G#5	     E5	
the most? Never end up knowing how it goes. Now that itís
	    B5		     F#5	  G#5
going so bad, I donít think I knew what I had.
Comments