Sum 41 - Hell Song Chords & Tabs

 

Hell Song Chords & Tabs

Sum 41 Chords & Tabs

Version: 1 Type: Tab 2 ratings
1 star 2 stars 3 stars 4 stars 5 stars
comments

Hell Song Tab

Sum 41 - Hell Song
by: KANARY


~~~INTRO~~~
guitar 1 
e|-----------------------------------------------------------------------------| 
B|-----------------------------------------------------------------------------| 
G|-----------------------------------------------------------------------------| 
D|------1-----------1-----------1---------2-2-1-1------------------------------| 
A|--2-4---2-----2-4---2---2-2-4---2---------------4-4--------------------------| 
E|4-----------0------------------------2-2-------------------------------------| 

guitar 2
e|-----------------------------------------------------------------------------| 
B|-----------------------------------------------------------------------------| 
G|------------------------4----------------------------------------------------| 
D|6-----------2-----------4------------4---------------------------------------| 
A|6-----------2-----------2------------4---------------------------------------| 
E|4-----------0------------------------2---------------------------------------| 
[ Tab from: http://www.guitartabs.cc/tabs/s/sum_41/hell_song_tab.html ]
~~~Verse~~~ palm mute
e|-----------------------------------------------------------------------------| 
B|-----------------------------------------------------------------------------| 
G|------------------------4----------------------------------------------------| 
D|6-----------2-----------4------------4---------------------------------------| 
A|6-----------2-----------2------------4---------------------------------------| 
E|4-----------0------------------------2---------------------------------------| 

~~~SOLO~~~

guitar 1
e|-----------------------------------------------------------------------------| 
B|--/9-9-9-9-9/---/9-9-9-9-9/---/7-7-7-7-7-5-----------------------------------| 
G|-------------------------------------------8-6-------::i dunno this part::---| 
D|-----------------------------------------------------------------------------| 
A|-----------------------------------------------------------------------------| 
E|-----------------------------------------------------------------------------| 

play this part realy fast with a few more times eache note
e|-----------------------------------------------------------------------------| 
B|-----------------------------------------------------------------------------| 
G|-4-6-8-9-8-6-4-6---4-4-4-4-4-4-4--6-6-6-6-6-6--8-8-8-8-8-8--9-9-9-9-9-9-9-9-9| 
D|-----------------------------------------------------------------------------| 
A|-----------------------------------------------------------------------------| 
E|-----------------------------------------------------------------------------| 

+++ dunno the rest of the solo... to hard to hear +++
Comments