Sum 41 - Hell Song Solo Good Chords & Tabs

 

Hell Song Solo Good Chords & Tabs

Sum 41 Chords & Tabs

Version: 1 Type: Tab 5 ratings
1 star 2 stars 3 stars 4 stars 5 stars
comments

Hell Song Solo Good Tab

tabbed by:Tyler Winterton

email: tyler_winterton@hotmail.com

This tab does not show every note played. This is really the case on
the bends also, where i just show the bend played, but not how long
its played or exactly what else is happening on it. This is just as
close as i can get using tabs.you need to listen to the song to really
figure out how long to play the notes and whatnot.


Artist:Sum 41
Song: Hell song

*SOLO*

e-----------------------------------------------------------
b--9------9------7------------------------------------------
g--11b13--11b13--9b11---8--6--6--8h9p8--6h8p6--4h6p4--------
d-----------------------------------------------------------
a-----------------------------------------------------------
E-----------------------------------------------------------
(11b13:bend the 11 note til it sounds like 13)

e-----------------------------------------------------------
b--4--5--5/7--5--5/7--7--4--5--7----------------------------
g--4--6--6/8--6--6/8--8--4--6--8---3h4p3h4p3h4--4h6p4h6p4h6-
d-----------------------------------------------------------
a-----------------------------------------------------------
E-----------------------------------------------------------


e------------------------------
b------------------------------
g--6h8p6h8p6h8--8h9p8h9p8h9----
d------------------------------
a------------------------------
E------------------------------


[ Tab from: http://www.guitartabs.cc/tabs/s/sum_41/hell_song_solo_good_tab.html ]
e----------------------------------------------------------------------------
b--9------11-----12-----14-----14b16--14p12----12--14b16--14b16--12--14--12--
g--11b13--13b15--14b16--16b18---------------13-------------------------------
d----------------------------------------------------------------------------
a----------------------------------------------------------------------------
E----------------------------------------------------------------------------



e--------14----------------------14-------------------
b--14b16----16b14--12--12--14b16----16b14--12--12-----
g-----------------------------------------------------
d-----------------------------------------------------
a-----------------------------------------------------
E-----------------------------------------------------
   |_____________|     
          |
          |
on this part, its written confusing, but it just means
that you hold that bend while you play the 14 on the "e" string,
then you hit the "b" string again and let the bend out. its also
easier to play using your pinky to hit the 14 on "e"


e----------------------------------------------------------------
b--11--11h12-12-12-----------------------------------------------
g------------------11--13--11------------------------------------
d------------------------------11h13-13--11-13-13----------------
a-------------------------------------------------9-11-9-9-11-9--
E----------------------------------------------------------------

Comments