Sum 41 - Heart Attack Chords & Tabs

 

Heart Attack Chords & Tabs

Sum 41 Chords & Tabs

Version: 1 Type: Bass Tab 0 ratings
1 star 2 stars 3 stars 4 stars 5 stars
comments

Heart Attack Bass Tab

   
SUM 41
HEART ATTACK
by: JUSTIN

this is the first song i've figured out on my own so go easy.
double digits equals 11, 12, 13, etc.       /-slide
intro
g-----------------
d-----------------
a-2/9--11--13-----
e-----------------

verse part 1 (x2)
g-----------------
d-----------------
a--9--11--13------
e-----------------

part 2 (x2)                     last notes on 2nd time

g-------------------------------*------
d-------------------------------*------
a--22222-444444-666666-888888---*-8-8-8
e-------------------------------*------

chorus (x4)

g-------------------------------
d-------------------------------
a--222222-444444----------------
e----------------4444444444444--

after chorus- play until verse

g-------------------------------
d-------------------------------
a-4-4-4p2h4-4-4-4p2h4-2-2-2p0h2-2-2-2p0h2
e-------------------------------
[ Tab from: http://www.guitartabs.cc/tabs/s/sum_41/heart_attack_btab.html ]
verse part 1 x2
part2 x2
chorus x4

bridge play until deryck starts singing

g------------------------------------------
d------------------------------------------
a-2-2-pause--24-22-00-22-00-2h4p2-22-00-22-00-2h4p2
e------------------------------------------

intro x1
g-------------------------------
d-------------------------------
a-2/9--11--13-------------------
e-------------------------------
verse #3    summer evenings.......

g------------------------------------
d------------------------------------
a-222222-4444444---------------------
e---------------4444444-2222222------

can't make time............
g------------------------------------
d------------------------------------
a----------------------2----2-2-2-2--
e4444444444-222222222-----------------

chorus x4

ending is the same as the bridge

its my first solo tab so dont bitch too much.  blinkhead@hotmail.com
Comments