Sum 41 - Handle This Chords & Tabs

 

Handle This Chords & Tabs

Sum 41 Chords & Tabs

Version: 7 Type: Tab 0 ratings
1 star 2 stars 3 stars 4 stars 5 stars
comments

Handle This Tab

artist: Sum 41
Song: Handle This
Album: All Killer No filler
Tabbed by: Sean R

This isn't exactly it, they play a few more notes in some of the sections but this sounds just as good.

e---------------14-14h15p14----------------------14-14h15p14
b---------15-----------------15--12-15h17p15h17-------------
g-----14-----14---------------------------------------------
d--16-------------------------------------------------------
a-----------------------------------------------------------
e-----------------------------------------------------------
[ Tab from: http://www.guitartabs.cc/tabs/s/sum_41/handle_this_tab_ver_7.html ]
e-----------------------------------------------------------
b-15---12-10------------------------------------------------
g------------12-11h12-14-14---11h12-14-14--14-16-14-12-11---
d---------------------------------------------------------14
a-----------------------------------------------------------
e-----------------------------------------------------------

e---------10-10--12-12--14-14--12-12-12--12p10----12p10-----
b---------10-10--10-10--10-10--10-10-10--------10-------10--
g-----------------------------------------------------------
d--12-11----------------------------------------------------
a-----------------------------------------------------------
e-----------------------------------------------------------

e--12p10-----12p10-----12p10--------------------------------
b--------10--------10--------10-----------------------------
g-----------------------------------------------------------
d---------------------------------5-------------------------
a---------------------------------5-------------------------
e---------------------------------3-------------------------
Comments