Sum 41 - Handle This Chords & Tabs

 

Handle This Chords & Tabs

Sum 41 Chords & Tabs

Version: 4 Type: Tab 0 ratings
1 star 2 stars 3 stars 4 stars 5 stars
comments

Handle This Tab

   
#----------------------------------PLEASE NOTE---------------------------------#
#This file is the author's own work and represents their interpretation of the #
#song. You may only use this file for private study, scholarship, or research. #
#------------------------------------------------------------------------------#

?This is my version of handle this by Sum 41 

here it is..........I hope!!!
rhythm 1

    D  D        A  A                  G G G G
|---5--5--------5--5------------------3----------------|
|---7--7--------5--5------------------3----------------|
|---7--7--------6--6------------------4----------------|
|---7--7-4-5-7--7--7---4-5-4----------5-------4-5-4----|
|---5--5--------7--7----------7-7\5-5-5----------------|
|---5--5--------5--5------------------3----------------| repeat

    D let ring
|---5----------
|---7----------
|---7----------
|---7----------
|---5----------
|---5----------
               You said it once before__________________________

                      D                 A                 Bm
|---------------------5-----------------5-----------------7-----
|---------------------7-----------------5-----------------7-----
|---------------------7-----------------6-----------------7-----
|---------------------7-----------------7-----------------9-----
|---------------------5-----------------7-----------------9-----
|---------------------5-----------------5-----------------7-----
                      p.mxxxxxxxxxxxxxxxxxxxxxxxxxxxxxxxxxxxxxx
          

                                             G
|--------------------------------------------3-------
|--------------------------------------------3-------
|--------------------------------------------4-------
|--------------------------------------------5-------
|--------------------------------------------5-------
|--------------------------------------------3-------
                                             open
            
Chorus
                       Bm     G             D           A
|----------------------7------3-------------5-----------5----------
|----------------------7------3-------------7-----------5----------
|----------------------7------4-------------7-----------6----------
|----------------------9------5-------------7-----------7----------
|----------------------9------5-------------5-----------7----------
|----------------------7------3-------------5-----------5----------
                 Cause I will bring you down_____________


                   E                     G                 D  
|------------------0---------------------3-----------------5----
|------------------0---------------------3-----------------7----
|------------------1---------------------4-----------------7----
|------------------2---------------------5-----------------7----
|------------------2---------------------5-----------------5----
|------------------0---------------------3-----------------5----
             

                      A         E            G              *
|---------------------5---------0------------3---------------------
|---------------------5---------0------------3---------------------
|---------------------6---------1------------4--------------------
|---------------------7---------2------------5---------------------
|---------------------7---------2------------5---------------------
|---------------------5---------0------------3---------------------
     

   *=repeat rhythm 1


Verse 2
                                          (Bm)
                        A    |------4444-6666-8888-----6666-
                             |------------------------------
                             |------------------------------
[ Tab from: http://www.guitartabs.cc/tabs/s/sum_41/handle_this_tab_ver_4.html ]

Chorus

here is the solo

    Bm            G          D               A       Bm               
|----------12--10-14-^14--10----10-12-10-12--14-^14--10--------
|--/7--10---------------------12-------------------------12-10-
|--------------------------------------------------------------
|--------------------------------------------------------------
|--------------------------------------------------------------
|--------------------------------------------------------------



        G          E                  G
|-------------------------------7-------------------
|----8--7-8-10-10--7-8-10-10-10---10--8-7---8-7-----
|-----------------------------------------9-----7-7-
|---------------------------------------------------
|---------------------------------------------------
|---------------------------------------------------


       D           A               G   
|---------12-14-10-12-10-14-12-10--12-10-14-12-10-10-10-10-10-10-
|-----/12--------------------------------------------------------
|----------------------------------------------------------------
|----------------------------------------------------------------
|----------------------------------------------------------------
|----------------------------------------------------------------


       G  let ring                                    D  D
|------3----------------------------------------------2--2---------
|------3----------------------------------------------3--3--3-5-7~\
|------4----------------------------------------------2--2---------
|------5----------------------------------------------0--0---------
|------5-----------------------------------------------------------
|------3----------------------------------------------------------

      


       D D              A 
|------2-2--2-3-5~\-----5-----------------------------------
|------3-3--3-5-7~\-----5-----------------------------------
|------2-2--------------6-----------------------------------
|------0-0--------------7-----------------------------------
|-----------------------7-----------------------------------
|-----------------------5-----------------------------------
             


        E                             G                       G
|-------------------------------------3-----------------------3-
|-------------------------------------3-----------------------3-
|-------1-----------------------------4-----------------------4-
|-------2-----------------------------5-----------------------5-
|-------2-----------------------------5-----------------------5-
|-------0-----------------------------3-----------------------3-
                                                              p.mxxxx
    

Chorus

      D                              A 
|-----5------------------------------5------------------------------
|-----7------------------------------5------------------------------
|-----7------------------------------6------------------------------
|-----7------------------------------7------------------------------
|-----5------------------------------7------------------------------
|-----5------------------------------5------------------------------

   

               G                    D    A
|--------------3--------------------5----5-----
|--------------3--------------------7----5-----
|--------------4--------------------7----6-----
|--------------5--------------------7----7-----
|--------------5--------------------5----7-----
|--------------3--------------------5----5-----


repeat that several times and end on an A chord..





Comments are greatly appreciated.  Send those and other modes of 
conversation to dodgeviper375@hotmail.com
Comments