Sum 41 - Handle This Chords & Tabs

 

Handle This Chords & Tabs

Sum 41 Chords & Tabs

Version: 3 Type: Tab 0 ratings
1 star 2 stars 3 stars 4 stars 5 stars
comments

Handle This Tab

Artist- Sum 41
Song- Handle This
Album- All Killer No Filler
Tabbed by- Greg Vautour
E-mail- proguitar_dude14@hotmail.com

This song is in dropped D tuning. I saw Sum in concert and they rocked.This is a really accurate tab. Watch for my tabs of What We're All About and other Sum songs.

 Intro 

E -----------------------------------------------------------------------------------------------------------
 B -----------------------------------------------------------------------------------------------------------    *Can sub 
 G -------------11--12--14-----------11-12--11-9--7--7--7--7--7-11-12--11-------------------------     G for D    
 D -----0--0---------------------7--------------------------------------------------------------------------
 A ---- 0--0---9---10--12------7-----9--10--9--7--5--5--5--5--5--9--10--9-------------------------
 D -----0--0---------------------7--------------------------------------------------------------------------
					 *

 E -----------------------------------------------------------------------------------------------------------
 B -----------------------------------------------------------------------------------------------------------     
 G -------------11--12--14-----------11-12--11-9--7--7--7--7--7-11-12--11-------------------------      
 D -----0--0---------------------7-----------------------------------------------------0---------------------
 A ---- 0--0---9---10--12------7-----9--10--9--7--5--5--5--5--5--9--10--9---- 0---------------------
 D -----0--0---------------------7-----------------------------------------------------0---------------------
					 

Verse 1

E --------------------------------------------------------------------------------------
 B --------------------------------------------------------------------------------------
 G -------------------------------------------------------------------------------------
 D -------------------------------------------------------------------------------------
 A ------------------------------------------------------------------------------------
 D ---0-0-0-0-0-0-0-0--7-7-7-7-7-7-7-7--9-9-9-9-9-9-9-9-5-5-5-5-5-5-5-5-  (muted)

 
Chorus

E --------------------------------------------------------------------------------------
 B --------------------------------------------------------------------------------------
 G ----4-4---------7--7--------------------7-7-----------------------------------------
 D ----4-4--5-5-- 7--7--7-7--2-2--5-5--7-7---7--2--5-----------------------------
 A ----2-2--5-5--5--5--7-7--2-2--5-5--5-5---7--2--5------------------------------
 D ----------5-5---------7-7--2-2--5-5---------7--2--5-------------------------------


E -----------------------------------------------------------------------------------------------------------
 B -----------------------------------------------------------------------------------------------------------    *Can sub 
 G -------------11--12--14-----------11-12--11-9--7--7--7--7--7-11-12--11-------------------------     G for D    
 D -----0--0---------------------7--------------------------------------------------------------------------
 A ---- 0--0---9---10--12------7-----9--10--9--7--5--5--5--5--5--9--10--9-------------------------
 D -----0--0---------------------7--------------------------------------------------------------------------
					 *

 E -----------------------------------------------------------------------------------------------------------
 B -----------------------------------------------------------------------------------------------------------     
 G -------------11--12--14-----------11-12--11-9--7--7--7--7--7-11-12--11-------------------------      
 D -----0--0---------------------7-----------------------------------------------------0---------------------
 A ---- 0--0---9---10--12------7-----9--10--9--7--5--5--5--5--5--9--10--9---- 0---------------------
 D -----0--0---------------------7-----------------------------------------------------0---------------------

Verse 2
	       *
E --------------------------------------------------------------------------------------
 B --------------2----3-2--------------------------------------------------------------
 G ----2-2-2-2----2---------------------------------------------------------------(11-12-14-12--)          *  {4 times}
 D -----------------------------------------------------------5-5-5-5-5-5-5-5---(-----------------)
 A -----------------------------------------------------------5-5-5-5-5-5-5-5---(-9-10-12-10--)
 D -----------------------------------------------------------5-5-5-5-5-5-5-5------


Chorus
[ Tab from: http://www.guitartabs.cc/tabs/s/sum_41/handle_this_tab_ver_3.html ]
E --------------------------------------------------------------------------------------
 B --------------------------------------------------------------------------------------
 G ----4-4---------7--7--------------------7-7-----------------------------------------
 D ----4-4--5-5-- 7--7--7-7--2-2--5-5--7-7---7--2--5-----------------------------
 A ----2-2--5-5--5--5--7-7--2-2--5-5--5-5---7--2--5------------------------------
 D ----------5-5---------7-7--2-2--5-5---------7--2--5-------------------------------

Solo

E ------------12--10--14--14--15--14----------10--12--10--12--14--14--15--14--------
 B -------10------------------------------15--12-----------------------------------------15----
 G ----11-----------------------------------------------------------------------------------------
 D -----------------------------------------------------------------------------------------------
 A ----------------------------------------------------------------------------------------------
 D ----------------------------------------------------------------------------------------------


E ----------------------------------------------------------------------------------------------------
 B ---------------------------------------------------------------------------------------------------
 G ---16--14--12--11--12--14--14--11--12--14--14--14--16--14--12--14--12--12--11----
 D ------------------------------------------------------------------------------------------------12-
 A ---------------------------------------------------------------------------------------------------
 D ---------------------------------------------------------------------------------------------------


E ----10---10---12---12----12--10---12--10---12--10---12--10---12--10------
 B ------10---10---10---10---------10--------10--------10--------10--------10--
 G -------------------------------------------------------------------------------------
 D -------------------------------------------------------------------------------------
 A ------------------------------------------------------------------------------------
 D -------------------------------------------------------------------------------------


E --------------------------------------------------------------------------------------
 B --------------------------------------------------------------------------------------
 G ------------------------------7--9--11---------7--9-11------------------------------
 D ---5------------------0-0---------------0-0------------------------------------------
 A --5---(16 times)---0-0---------------0-0---5--7--9--------------------------------
 D ---5------------------0-0---------------0-0-----------------------------------------


E --------------------------------------------------------------------------------------
 B --------------------------------------------------------------------------------------
 G -------------------------------------------------------------------------------------
 D ----7-7-7-7-7-7-7-7--2-2-2-2-2-2-2-2--5-5-5-5-5-5-5-5----5------------------
 A ----7-7-7-7-7-7-7-7--2-2-2-2-2-2-2-2--5-5-5-5-5-5-5-5---5-(16 times)------
 D ----7-7-7-7-7-7-7-7--2-2-2-2-2-2-2-2--5-5-5-5-5-5-5-5---5--------------------

Chorus

E --------------------------------------------------------------------------------------
 B --------------------------------------------------------------------------------------
 G ----4-4---------7--7-------------------------------------------------------------
 D ----4-4--5-5-- 7--7--7-7--2-2--5-5-------------------------------------------
 A ----2-2--5-5--5--5--7-7--2-2--5-5-------------------------------------------
 D ----------5-5---------7-7--2-2--5-5--------------------------------------------


E --------------------------------------------------------------------------------------
 B --------------------------------------------------------------------------------------
 G ----4-4---------7--7--------------------7-7-----------------------------------------
 D ----4-4--5-5-- 7--7--7-7--2-2--5-5--7-7---7--2--5-----------------------------
 A ----2-2--5-5--5--5--7-7--2-2--5-5--5-5---7--2--5------------------------------
 D ----------5-5---------7-7--2-2--5-5---------7--2--5-------------------------------


E --------------------------------------------------------------------------------------
 B --------------------------------------------------------------------------------------
 G --7-7-7-7--------------------------7-7--------------------------------------------         (times 4)
 D --7-7-7-7---7-7-7-7--5-5----5--7-7--7-----------------------------------------
 A --5-5-5-5---7-7-7-7--5-5----5--5-5--7---------------------------------------
 D --------------7-7-7-7--5-5----5--------7--------------------------------------

Comments