Sum 41 - Handle This Chords & Tabs

 

Handle This Chords & Tabs

Sum 41 Chords & Tabs

Version: 14 Type: Tab 0 ratings
1 star 2 stars 3 stars 4 stars 5 stars
comments

Handle This Tab

Band:Sum 41
Song:Handle This
Album:All Killer No Filler
Tabbed by:Daniel Crichton

This is the real solo from the actuall book.

Guitar 1
E|--------------14----14^---------10-12-10h12s14--14^---------------
B|--------17-15----------15----12--------------------15----12-10----
G|-----14----------14--------------------------------------------12-
D|--16--------------------------------------------------------------
A|------------------------------------------------------------------
E|------------------------------------------------------------------
[ Tab from: http://www.guitartabs.cc/tabs/s/sum_41/handle_this_tab_ver_14.html ]
E|---------------------------------------------------------10-12-14-
B|---------------------------------------------------------10-10-10-
G|-11h12-14-14--11h12-14-14-14s16-14--12-11----12-11----------------
D|------------------------------------------14-------12-12----------
A|------------------------------------------------------------------
E|------------------------------------------------------------------

E|-12-10-14s15-14-12--12p10----12p10----12p10----12p10----12p10----10|
B|-10-10-10----10-10--10----10-------10-------10-------10-------10-10|
G|-------------------------------------------------------------------|
D|-------------------------------------------------------------------|
A|-------------------------------------------------------------------|
E|-------------------------------------------------------------------|

Guitar 2 Drop D tuning
E|-------------------------------------------------------|
B|-------------------------------------------------------|
G|-------------------------------------------------------|play this
D|--7--7--7--7-7-----------------------------------------|2 and a half
A|--5--5--5--5-5--7--7--7-7--2--2--2--2-2-5-5-5--5--5-5--|times
D|----------------7--7--7-7--2--2--2--2-2-5-5-5--5--5-5--|
Comments